Song name
# A B C D E F G H I J K L M N O P Q R S T U V W X Y Z

Foo Fighters - Bridge Burning tab

Foo Fighters - Bridge Burning

Tabbed by: Howard2k3k

Tuning: Standard (EADGBe)

. = Palm muted
/ = Slide up
\ = Down slide
() = Harmonic
~ = Let notes ring


Another awesome song by Foo Fighters from their newest album "Wasting Light".

Tabbed this out by listening to the track. It sounds pretty good to me, although 
theres a few things I'm not a 100% sure of, specially the intro.


Still, I hope the tab will help you out! 

Rock on !





Intro:


|--------------------------------------------|
|--------------------------------------------|
|--x--x-x--x--x-x--x--x-x--x--x-x-x--x-x-x---|
|--x--x-x--x--x-x--x--x-x--x--x-x-x--x-x-x---|
|--4-------4-------4-------4------4----------|
|--------------------------------------------|

X -> calmy lay your fingers on the 6th fret



Guitar 1:

(0:12)

|---------------------------------------|
|---------------------------------------|
|---------------------------------------|
|---------------------------------------|
|--5-7-5-7-5-7-5-7-5-7----5-7-----------|
|----------------------0-------0--------|
   . . . . . . . . . . .  . .  .  


Guitar 2:

(0:17)

|---------------------------------------|
|---------------------------------------|
|---------------------------------------|
|---------------------------------------|
|--5-7-5-7-5-7-5-7-5-7----5-7-----------|
|----------------------0-------0--------|




Verse: 

(0:34)

|-----------------------------------------------------------|
|-----------------------------------------------------------|
|--99-9\88-8\77-7\66----------------5555-----------7777-----|
|--99-9\88-8\77-7\66----------------5555-5555-7777-7777-----|  x 2
|--77-7\66-6\55-5\44----------------3333-5555-7777-5555-----|
|----------------------12\\\\\\----------3333-5555----------|


(0:45)

|-------------------------------------------------------------------|
|-------------------------------------------------------------------|
|-------------------------------------------------------------------|
|------5-------5-------5-------5-------5-------5-------5-------5----|
|--7-7---77-66---66-55---55-44---44-33---33-----------------55------|
|-------------------------------------------33---33--55--55---------|
   . .   .. ..   .. ..   .. ..   .. ..   .. ..   ..  ..  .. ..   

 


|----------------------------------------------------------------------------|
|------------------------------------------------------------(5)-------------|
|----------------------------------------------------------------------------|
|------5-------5-------5-------5-------5-------5---------5-------------------|
|--7-7---77-66---66-55---55-44---44-33---33----------------------------------|
|-------------------------------------------33---33--5555--5-----12\\\\\\\---|
   . .   .. ..   .. ..   .. ..   .. ..   .. ..   ..  ....  .      



(0:57)

|-------------------------------------------------------------------|
|-------------------------------------------------------------------|
|-------------------------------------------------------------------|
|------5-------5-------5-------5-------5-------5-------5-------5----|
|--7-7---77-66---66-55---55-44---44-33---33-----------------55------|
|-------------------------------------------33---33--55--55---------|
   . .   .. ..   .. ..   .. ..   .. ..   .. ..   ..  ..  .. ..   



|----------------------------------------------------------------------------|
|------------------------------------------------------------(5)-------------|
|----------------------------------------------------------------------------|
|------5-------5-------5-------5-------5-------5---------5-------------------|
|--7-7---77-66---66-55---55-44---44-33---33----------------------------------|
|-------------------------------------------33---33--5555--5-----12\\\\\\\---|
   . .   .. ..   .. ..   .. ..   .. ..   .. ..   ..  ....  .      



(1:08)


|-------------------------------------------------------------------|
|-------------------------------------------------------------------|
|-------------------------------------------------------------------|
|------5-------5-------5-------5-------5-------5-------5-------5----|
|--7-7---77-66---66-55---55-44---44-33---33-----------------55------|
|-------------------------------------------33---33--55--55---------|
   . .   .. ..   .. ..   .. ..   .. ..   .. ..   ..  ..  .. ..   



|----------------------------------------------------------------------------|
|------------------------------------------------------------(5)-------------|
|----------------------------------------------------------------------------|
|------5-------5-------5-------5-------5-------5---------5-------------------|
|--7-7---77-66---66-55---55-44---44-33---33----------------------------------|
|-------------------------------------------33---33--5555--5-----12\\\\\\\---|
   . .   .. ..   .. ..   .. ..   .. ..   .. ..   ..  ....  .      


(1:19)


|-------------------------------------------------------------------|
|-------------------------------------------------------------------|
|-------------------------------------------------------------------| 
|------5-------5-------5-------5-------5-------5-------5-------5----|  x 2
|--7-7---77-66---66-55---55-44---44-33---33-----------------55------| 
|-------------------------------------------33---33--55--55---------|



Pre-chours:

(1:30)

Guitar 1:


|----3--2--3---------3--2--3----------3--2--3------------|
|-----3--3--3--3------3--3--3--3-------3--3--3--3--------|
|------0--0--0--0------0--0--3--0-------0--0--3--0-------| x 2
|----------------4---------------4----------------4------|
|--3---------------0----------------3--------------------|
|--------------------------------------------------------|

[Not 100% sure, but this sounds good.]

Guitar 2:


|--3~------0~-----|
|--3~------3~-----|
|--0~------2~-----|
|--2~------2~-----|  x 2
|--3~------0~-----|
|-----------------|


(1:40)

|-----------------|
|-----------------|
|--88888888-------|
|--88888888-------|
|--66666666-------|
|-----------------|



Chours:

(1:42)

|----------------------------------------------------------------------------|
|----------------------------------------------------------------------------|
|------------------7-777777777777777--5-5555-------------555555--------------|
|--99999999999999--7-777777777777777--5-5555--2-2222222--555555--2-2222222---|x2  
|--77777777777777--5-555555555555555--3-3333--2-2222222--333333--2-2222222---|
|--00000000000000-----------------------------0-0000000----------0-0000000---|



(2:05)

|-------------------------------------------|
|-------------------------------------------|
|--555555-------------77777777777777-88-----|
|--555555--2-2222222--77777777777777-88-----|
|--333333--2-2222222--55555555555555-66-----|
|----------0-0000000------------------------|


(2:10)

|---------------------------------------|
|---------------------------------------|
|---------------------------------------|
|---------------------------------------|  x2
|--5-7-5-7-5-7-5-7-5-7----5-7-----------|
|----------------------0-------0--------|



|-------------------------------------------------------------------|
|-------------------------------------------------------------------|
|-------------------------------------------------------------------|
|------5-------5-------5-------5-------5-------5-------5-------5----|
|--7-7---77-66---66-55---55-44---44-33---33-----------------55------|
|-------------------------------------------33---33--55--55---------|
   . .   .. ..   .. ..   .. ..   .. ..   .. ..   ..  ..  .. ..   



|----------------------------------------------------------------------------|
|------------------------------------------------------------(5)-------------|
|----------------------------------------------------------------------------|
|------5-------5-------5-------5-------5-------5---------5-------------------|
|--7-7---77-66---66-55---55-44---44-33---33----------------------------------|
|-------------------------------------------33---33--5555--5-----12\\\\\\\---|
   . .   .. ..   .. ..   .. ..   .. ..   .. ..   ..  ....  .      



(2:27)


|---------------------------------------------|
|---------------------------------------------|
|--9-99-888-777-66---5-55----------77---------|
|--9-99-888-777-66---5-55-555-777--77---------| x 2
|--7-77-666-555-44---3-33-555-777--55---------|
|-------------------------333-555-------------|



(2:38)

|----3--2--3---------3--2--3----------3--2--3------------|
|-----3--3--3--3------3--3--3--3-------3--3--3--3--------|
|------0--0--0--0------0--0--3--0-------0--0--3--0-------| x 2
|----------------4---------------4----------------4------|
|--3---------------0----------------3--------------------|
|--------------------------------------------------------|



|--3~------0~-----|
|--3~------3~-----|
|--0~------2~-----|
|--2~------2~-----|  x 2
|--3~------0~-----|
|-----------------|


(2:48)

|-----------------|
|-----------------|
|--88888888-------|
|--88888888-------|
|--66666666-------|
|-----------------|



Chours 2:

(2:50)

|----------------------------------------------------------------------------|
|----------------------------------------------------------------------------|
|------------------7-777777777777777--5-5555-------------555555--------------|
|--99999999999999--7-777777777777777--5-5555--2-2222222--555555--2-2222222---|x2
|--77777777777777--5-555555555555555--3-3333--2-2222222--333333--2-2222222---|
|--00000000000000-----------------------------0-0000000----------0-0000000---|



|-------------------------------------------|
|-------------------------------------------|
|--555555-------------77777777777777-88-----|
|--555555--2-2222222--77777777777777-88-----|
|--333333--2-2222222--55555555555555-66-----|
|----------0-0000000------------------------|


Bridge:

(3:18)


Guitar 1:

|-------------------------------------------------------------------------|
|-------------------------------------------------------------------------|
|------------------------------------------------------77777777-88888888--|
|--999999999999999--4444444444444444--000000000000000--77777777-88888888--|x2
|--777777777777777--4444444444444444--555555555555555--55555555-66666666--|
|--000000000000000--2222222222222222--333333333333333---------------------|


Guitar 2:


|--------------------------------------------------------------|
|--------------------------------------------------------------|
|--/16-16-141h16-16-14h16-16-14h16-16--14-14-14-14-14-14-14-14-|------|
|--------------------------------------------------------------|      | x2
|--------------------------------------------------------------|      |
|--------------------------------------------------------------|      |
                                                                      |
----------------------------------------------------|                 |
----------------------------------------------------|                 |
-12-12-12-12-12-12-12-12--14-14-14-14-15-15-15-15---|                 |
----------------------------------------------------|-----------------|
----------------------------------------------------|
----------------------------------------------------|

[Again, not 100% sure about guitar 2. Hard to hear exactly.]


----------------------------------------|
|---------------------------------------|
|---------------------------------------|
|---------------------------------------|
|--5-7-5-7-5-7-5-7-5-7----5-7-----------|
|----------------------0-------0--------|



Chours 3:

(3:43)

|----------------------------------------------------------------------------|
|----------------------------------------------------------------------------|
|------------------7-777777777777777--5-5555-------------555555--------------|
|--99999999999999--7-777777777777777--5-5555--2-2222222--555555--2-2222222---|x4
|--77777777777777--5-555555555555555--3-3333--2-2222222--333333--2-2222222---|
|--00000000000000-----------------------------0-0000000----------0-0000000---|




|-------------------------------------------|
|-------------------------------------------|
|--555555-------------77777777777777-8\-----|
|--555555--2-2222222--77777777777777-8\-----|
|--333333--2-2222222--55555555555555-6\-----|
|----------0-0000000------------------------|


Outro:

(4:34)

|---------------------------------------|
|---------------------------------------|
|---------------------------------------|
|---------------------------------------| x 2
|--5-7-5-7-5-7-5-7-5-7----5-7-----------|
|----------------------0-------0--------|



|---------------------------------------------------------------|
|---------------------------------------------------------------|
|---------------------------------------------------------------|
|---------------------------------------------------------------|
|--5-7-5-7-5-7-5-7-5-7-5-7-5-7-5-7-5-7-5-7-5-7-5-7-5-7---5-7----|
|------------------------------------------------------0-----0--|
Tap to rate this tab
 
# A B C D E F G H I J K L M N O P Q R S T U V W X Y Z