Song name
# A B C D E F G H I J K L M N O P Q R S T U V W X Y Z

Foo Fighters - Arlandria tab

-------------------------------------------------------------------------------
			     Arlandria - Foo Fighters
-------------------------------------------------------------------------------
Tabbed by:.wonder

Tuning:Standard

Verse

... Ain't that the way it always starts...
*Palm Muted
e|-------------------------------4-4-4-4-5-5-5-5-7-7-7-7-2-2-2-2-------------|
B|-------------------------------4-4-4-4-5-5-5-5-7-7-7-7-2-2-2-2-------------|
G|-------------------------------6-6-6-6-6-6-6-6-8-8-8-8-3-3-3-3-------------|
D|-------------------------------6-6-6-6-7-7-7-7-9-9-9-9-4-4-4-4-------------|
A|-------------------------------4-4-4-4-7-7-7-7-9-9-9-9-4-4-4-4-------------|
E|-------------------------------4-4-4-4-5-5-5-5-7-7-7-7-2-2-2-2-------------|

Verse (BASS)
G|---------------------------------------------------------------------------|
D|---------------------------------------------------------------------------|
A|---------------------------------------------------------------------------|
E|-------------------------------9-9-9-9-5-5-5-5-7-7-7-7-2-2-2-2-------------|

Chorus
...You used to say I couldn't save you enough, so I've been savin' it up...
e|-4--------------------------5-----------------------------7----------------|
B|-4--------------------------5-----------------------------7----------------|
G|-6--------------------------6-----------------------------9----------------|
D|-6--------------------------7-----------------------------9----------------|
A|-4--------------------------7-----------------------------7----------------|
E|-4--------------------------5-----------------------------7----------------|

...I started savin' it up
e|-----------7---------------------------------------------------------------|
B|-----------7---------------------------------------------------------------|
G|-----------8---------------------------------------------------------------|
D|-----------9-------------4-4-4---------------------------------------------|
A|-----------9-------------4-4-4---------------------------------------------|
E|-----------7-------------2-2-2---------------------------------------------|

...You are not me, Arlandria, Arlandria
e|-4---------------2----------5---------7-7-7--------------------------------|
B|-4---------------2----------5---------7-7-7--------------------------------|
G|-6---------------2----------6---------8-8-8--------------------------------|
D|-6---------------4----------7---------9-9-9--------------------------------|
A|-4---------------4----------7---------9-9-9--10-10-10-10-10-10-------------|
E|-4---------------2----------5---------7-7-7--8--8--8--8--8--8--------------|


Just after the chorus (BASS)
...Oh God You gotta make it stop
G|---------------------------------------------------------------------------|
D|---------------------------------------------------------------------------|
A|---------------------------------------------------------------------------|
E|--------------------------9-9--5---12-12--11-------------------------------|
Tap to rate this tab
 
# A B C D E F G H I J K L M N O P Q R S T U V W X Y Z