Foo Fighters - On The Mend tab


Intro/Verse

e||-----------2-------------4----------------------2-----------0--------------||
B||----0---------0---0---------0---0---------0-------0---0-------0---0--------||
G||------3-------------3-------------3---------3-----------3-----------3------||
D||--4------4------4------4------4------4--2-----2-----2-----2-----2-----2----||
A||---------------------------------------------------------------------------||
E||---------------------------------------------------------------------------||


e||------6----9----11--7--9--6--------------------||
B||--------------------------7--------------------||
G||-----------------------------------------------|| right before lyrics start 2nd soft
D||-----------------------------------------------|| guitar does this 
A||-----------------------------------------------|| and a couple more time throughout song
E||-----------------------------------------------||



Chorus

follow along exactly to see how he transitions from chord to chord

e||---------6--||     
B||---0---0----||     
G||------------||     
D||-6----6-----|| x5  
A||------------||     
E||------------||  


e||----------------5-----||     
B||---0-----0---0--------||     
G||----------------------||     
D||-6-----5---5----------||  
A||----------------------||     
E||----------------------|| 

e||----------5--||     
B||---0----0----||     
G||-------------||     
D||-5----5------|| x3  
A||-------------||     
E||-------------|| 


solo


e||-----------------------------------------------||
B||-----------------------------------------------||
G||-----------------------------------------------||
D||---8-9-8-9-9s11--11-13-11--11-13-14-13\11-9----||
A||-----------------------------------------------||
E||-----------------------------------------------||

e||-----------------------------------------------||
B||-----------------------------------------------||
G||-----------------------------------------------||
D||---11-9-8-9-8-6-8-6-4-6-4-2-4-2-1-2------------||
A||-----------------------------------------------||
E||-----------------------------------------------||

e||-----------------------------------------------||
B||-----------------------------------------------||
G||-----------------------------------------------||
D||---4-4/6-6--6/8-8--8/9-9--9/11-----------------||
A||-----------------------------------------------||
E||-----------------------------------------------||

e||-----------------------------------------------||
B||-----------------------------------------------||
G||-----------------------------------------------||
D||---11\9--9\8--8\6-6-//11-11\9--9\8--8\6-6------||
A||-----------------------------------------------||
E||-----------------------------------------------||

2nd time play same thing just one octave higher (but only the first 2 out of 4 bars tabbed above)
Tap to rate this tab
 
# A B C D E F G H I J K L M N O P Q R S T U V W X Y Z