Song name
# A B C D E F G H I J K L M N O P Q R S T U V W X Y Z

Foo Fighters - Long Road To Ruin tab

#----------------------------------PLEASE NOTE---------------------------------#
#This file is the author's own work and represents their interpretation of the #
#song. You may only use this file for private study, scholarship, or research. #
#------------------------------------------------------------------------------##


          C/G                Fsus2/C                F5                   C5
      3 3 2 0 1 x          x 3 3 0 1 1          1 3 3 x x x          x 3 5 5 x x

          G/B                  Am                    D
      x 2 5 x x x          x 0 2 2 1 0          x x 0 2 3 2

Gtr I (E A D G B E) - 'Guitar 1'
Gtr II (E A D G B E) - 'Guitar 2'
Gtr III (E A D G B E) - 'Guitar 3'
Gtr IV (E A D G B E) - 'Guitar 4'
Gtr V (E A D G B E) - 'Guitar 5'
Gtr VI (E A D G B E) - 'Guitar 6'

 Intro
  Moderately Fast Rock Q=147
                       C/G
 4/4
  Gtr I
  W          H    Q  E S S   W          +H     +Q.   S S
|----------|---------------|----------|-------------------||
|----------|-----------1-1-|-1--------|-(1)----(1)---1-1--||
|----------|-----------0-0-|-0--------|-(0)----(0)---0-0--||
|----------|-----------2-2-|-2--------|-(2)----(2)---2-2--||
|----------|-----------3-3-|-3--------|-(3)----(3)---3-3--||
|----------|-----------3-3-|-3--------|-(3)----(3)---3-3--||


 Verse 1
  C/G
  Gtr I
  W                   +H       +Q.    S S
  |                    |        |     | |
  /                    /        /     / /

  Gtr II
  E Q  E +E  a Q  E   +E  Q  E +E  Q  E
|---0--0-(0)---0--0-|-(0)-------------3---|
|---1--3-(3)-3s5--3-|-(3)-1--0-(0)-1------|
|-------------------|---------------------|
|-------------------|---------------------|
|-------------------|---------------------|
|-------------------|---------------------|


                                        Fsus2/C
   W                    +H       +Q.    S S
   |                     |        |     | |
   /                     /        /     / /

  +E  Q  E +E  a Q  E   +E  Q  E +E  Q  E
|-(3)------------0--0-|-(0)-----------------|
|-----1--3-(3)-3s5--3-|-(3)-1--0-(0)-1------|
|---------------------|-----------------0---|
|---------------------|---------------------|
|---------------------|---------------------|
|---------------------|---------------------|


  Fsus2/C
   W                    +H       +Q.    S S
   |                     |        |     | |
   /                     /        /     / /

  +E  Q  E +E  a Q  E   +E  Q  E +E  Q  E
|-----0--0-(0)---0--0-|-(0)-------------3---|
|-----1--3-(3)-3s5--3-|-(3)-1--0-(0)-1------|
|-(0)-----------------|---------------------|
|---------------------|---------------------|
|---------------------|---------------------|
|---------------------|---------------------|
|
| Gtr III
|  W                     W
|---------------------|---------------------|
|---------------------|---------------------|
|---------------------|---------------------|
|---------------------|---------------------|
|---------------------|---------------------|
|---------------------|---------------------|


                                         C/G
   W                    +H       +Q.     S S
   |                     |        |      | |
   /                     /        /      / /

  +E  Q  E +E  a Q  E   +E  Q  E +E  Q   E
|-(3)------------0--0-|-(0)------------------|
|-----1--3-(3)-3s5--3-|-(3)-1--0-(0)-1-------|
|---------------------|------------------0---|
|---------------------|----------------------|
|---------------------|----------------------|
|---------------------|----------------------|
|
|  W                     H        Q    E S S
|---------------------|----------------------|
|---------------------|------------------1-1-|
|---------------------|------------------0-0-|
|---------------------|------------------2-2-|
|---------------------|------------------3-3-|
|---------------------|------------------3-3-|


  C/G
   W                    +H       +Q.    S S
   |                     |        |     | |
   /                     /        /     / /

  Gtr II
  +Q   E E +E  a Q  E   +E  Q  E +E  Q  E
|------0-0-(0)---0--0-|-(0)-------------3---|
|------1-3-(3)-3s5--3-|-(3)-1--0-(0)-1------|
|-(0)-----------------|---------------------|
|---------------------|---------------------|
|---------------------|---------------------|
|---------------------|---------------------|


                                        Fsus2/C
   W                    +H       +Q.    S S
   |                     |        |     | |
   /                     /        /     / /

  +E  Q  E +E  a Q  E   +E  Q  E +E  Q  E
|-(3)------------0--0-|-(0)-----------------|
|-----1--3-(3)-3s5--3-|-(3)-1--0-(0)-1------|
|---------------------|-----------------0---|
|---------------------|---------------------|
|---------------------|---------------------|
|---------------------|---------------------|


  Fsus2/C
   W                    +H       +Q.    S S    W
   |                     |        |     | |    |
   /                     /        /     / /    /

  +Q   E E +E  a Q  E   +E  Q  E +E  Q  E     +E  Q  E +E  a Q  E
|------0-0-(0)---0--0-|-(0)-------------3---|-(3)------------0--0-|
|------1-3-(3)-3s5--3-|-(3)-1--0-(0)-1------|-----1--3-(3)-3s5--3-|
|-(0)-----------------|---------------------|---------------------|
|---------------------|---------------------|---------------------|
|---------------------|---------------------|---------------------|
|---------------------|---------------------|---------------------|


                  C/G
  +H       +Q.    S S    H       +E    Q  E   +E  Q  E +E  E  E E
   |        |     | |    |        |    |  |    |  |  |  |  |  | |
   /        /     / /    /        /    /  /    /  /  /  /  /  / x

  +E  Q  E +E  Q  E     +Q   E E +E  a Q  E   +E  Q  E +E  Q.
|-(0)-----------------|------0-0-(0)---0--0-|-(0)-----------------||
|-(3)-1--0-(0)-1------|------1-3-(3)-3s5--3-|-(3)-1--0-(0)-1------||
|-----------------0---|-(0)-----------------|---------------------||
|---------------------|---------------------|---------------------||
|---------------------|---------------------|---------------------||
|---------------------|---------------------|---------------------||


 Pre-Chorus
  $
  Fadd9              Gadd4/B            Fadd9              Gadd4/B
  Gtrs II, IV
  Q.   E +E  E E E   Q.   E +E  E E E   Q.   E +E  E E E   Q.   E +E  E E E
|------3-(3)-------|------3-(3)-------|------3-(3)-------|------3-(3)-------|
|------------1-----|------------1-----|------------1-----|------------1-----|
|----------------0-|----------------0-|----------------0-|----------------0-|
|------------------|------------------|------------------|------------------|
|-3------------3---|-2------------2---|-3------------3---|-2------------2---|
|------------------|------------------|------------------|------------------|
|
| Gtr I
| Q.   E +Q    Q     Q.   E +Q    Q     Q.   E +Q    Q     Q.   E +Q    Q
|------------------|------------------|------------------|------------------|
|------------------|------------------|------------------|------------------|
|------------------|------------------|------------------|------------------|
|------------------|------------------|------------------|------------------|
|-0------------0---|-2------------2---|-3------------3---|-5------------5---|
|------1-(1)-------|------3-(3)-------|------5-(5)-------|------7-(7)-------|
|
| Gtr III
| Q.   E +Q    Q     Q.   E +Q    Q     Q.   E +Q    Q     Q.   E +Q    Q
|------------------|------------------|------------------|------------------|
|------------------|------------------|------------------|------------------|
|------------------|------------------|------------------|------------------|
|------------------|------------------|------------------|------------------|
|-0------------0---|-2------------2---|-3------------3---|-2------------2---|
|------1-(1)-------|------3-(3)-------|------5-(5)-------|------3-(3)-------|


                                                                  To Coda
                                                           D
  Q.   E +E  E E E   Q.   E +E  E E E   Q.   E +E  E E E   E E E E E E E E
|------3-(3)-------|------3-(3)-------|------3-(3)-------|-2-2-2-2-2-2-2-2-||
|------------1-----|------------1-----|------------1-----|-3-3-3-3-3-3-3-3-||
|----------------0-|----------------0-|----------------0-|-2-2-2-2-2-2-2-2-||
|------------------|------------------|------------------|-0-0-0-0-0-0-0-0-||
|-3------------3---|-2------------2---|-3------------3---|-----------------||
|------------------|------------------|------------------|-----------------||
|
| Q.   E +Q    Q     Q.   E +Q    Q     W                  E E E E E E E E
|------------------|------------------|------------------|-----------------||
|------------------|------------------|------------------|-----------------||
|------------------|------------------|------------------|-----------------||
|------------------|------------------|------------------|-----------------||
|-0------------0---|-5------------5---|-7----------------|-5-5-5-5-5-5-5-0-||
|------1-(1)-------|------7-(7)-------|------------------|---------------0-||
|
| Q.   E +Q    Q     Q.   E +Q    Q     Q.   E +Q    Q     Q   E E E E E E
|------------------|------------------|------------------|-----------------||
|------------------|------------------|------------------|-----------------||
|------------------|------------------|------------------|-----------------||
|------------------|------------------|------------------|-----------------||
|-0------------0---|-2------------2---|-3------------3---|-5---5-5-5-5-5-0-||
|------1-(1)-------|------3-(3)-------|------5-(5)-------|---------------0-||


 Chorus 1
  F5                 C5
  Gtr I
  Q  E E +E  E E E   Q  E E +E  E E E
  |  | |  |  | | |   |  | |  |  | | |
  /  / /  /  / / x   /  / /  /  / / x

  Gtr III
  Q  E E +E  E E E   Q  E E +E  E E E
|------------------|------------------|
|------------------|-1--1-1-(1)-1-1---|
|-2--2-2-(2)-2-2---|-0--0-0-(0)-0-0---|
|-3--3-3-(3)-3-3-0-|-2--2-2-(2)-2-2-0-|
|-3--3-3-(3)-3-3-0-|-3--3-3-(3)-3-3-0-|
|-1--1-1-(1)-1-1-0-|-3--3-3-(3)-3-3-0-|
|
| Gtr IV
| Q  E E +E  E E E   Q  E E +E  E E E
|-3--3-3-(3)-3-3-3-|-3--3-3-(3)-3-3-3-|
|-1--1-1-(1)-1-1-0-|-1--1-1-(1)-1-1-0-|
|-2--2-2-(2)-2-2-0-|-0--0-0-(0)-0-0-0-|
|-3--3-3-(3)-3-3-0-|-2--2-2-(2)-2-2-0-|
|------------------|-3--3-3-(3)-3-3---|
|------------------|------------------|


  F5                 C5             G/B
  Q  E E +E  E E E   Q  E S S E S S E S S
  |  | |  |  | | |   |  | | | | | | | | |
  /  / /  /  / / x   /  / x x / x x / x x

  Q  E E +E  E E E   Q  E E   E E   E E
|------------------|-----------------------|
|------------------|-1--1-1----------------|
|-2--2-2-(2)-2-2---|-0--0-0---0-0---0-0----|
|-3--3-3-(3)-3-3-0-|-2--2-2---2-2---0-0----|
|-3--3-3-(3)-3-3-0-|-3--3-3---3-3---2-2----|
|-1--1-1-(1)-1-1-0-|-3--3-3----------------|
|
| Q  E E +E  E E E   Q  E E   E E   E E
|-3--3-3-(3)-3-3-3-|-3--3-3---3-3---3-3----|
|-1--1-1-(1)-1-1-0-|-1--1-1---1-1---0-0----|
|-2--2-2-(2)-2-2-0-|-0--0-0---0-0---0-0----|
|-3--3-3-(3)-3-3-0-|-2--2-2---2-2---0-0----|
|------------------|-3--3-3---3-3---2-2----|
|------------------|-----------------------|


  Am                 D                   F5                              C/G
  Q  E E +E  E E E   Q   E E +E  E E E   E E E E E E E E   E E E E E E E S S
  |  | |  |  | | |   |   | |  |  | | |   | | | | | | | |   | | | | | | | | |
  /  / /  /  / / /   /   / /  /  / / /   / / / / / / / /   / / / / / / / / /

                                         Gtrs III, V
  Q  E E +E  E E E   Q   E E +E  E E E   E E E E E E E E   E E E E E E E S S
|------------------|-2---2-2-(2)-2-2---|-----------------|--------------------||
|------------------|-3---3-3-(3)-3-3---|-----------------|--------------------||
|-2--2-2-(2)-2-2---|-2---2-2-(2)-2-2---|-----------------|--------------------||
|-2--2-2-(2)-2-2-0-|-0---0-0-(0)-0-0-0-|-3-3-3-3-5-5-5-5-|-7-7-7-7-9-9-9-x-x--||
|-0--0-0-(0)-0-0-0-|-0---0-0-(0)-0-0-0-|-x-x-x-x-x-x-x-x-|-x-x-x-x-x-x-x-x-x--||
|----------------0-|-----------------0-|-1-1-1-1-3-3-3-3-|-5-5-5-5-7-7-7-x-x--||
|
| Q  E E +E  E E E   E E E E +E  E E E   E E E E E E E E   E E E E E E E E
|-0--0-0-(0)-0-0-0-|-2-2-2-2-(2)-2-2-x-|-3-3-3-3-3-3-3-3-|-3-3-3-3-3-3-3-3----||
|-1--1-1-(1)-1-1-1-|-3-3-3-3-(3)-3-3-x-|-1-1-1-1-1-1-1-1-|-1-1-1-1-1-1-1-0----||
|-2--2-2-(2)-2-2-2-|-2-2-2-2-(2)-2-2-x-|-2-2-2-2-2-2-2-2-|-2-2-2-2-2-2-2-0----||
|-2--2-2-(2)-2-2-2-|-0-0-0-0-(0)-0-0-x-|-3-3-3-3-3-3-3-3-|-3-3-3-3-3-3-3-0----||
|-0--0-0-(0)-0-0-0-|-------------------|-----------------|--------------------||
|------------------|-------------------|-----------------|--------------------||


 Verse 2
  C/G
  Gtrs I, IV
   W                      +H        +Q.     S S
   |                       |         |      | |
   /                       /         /      / /

  Gtr II
   E Q   E +E  a Q   E    +E  Q   E +E  Q   E
|----0---0-(0)---0---0-|--(0)---------------3---|
|----1---3-(3)-3s5---3-|--(3)-1---0-(0)-1-------|
|----------------------|------------------------|
|----------------------|------------------------|
|----------------------|------------------------|
|----------------------|------------------------|
|
| Gtrs III, V
|  W                      +W
|----------------------|------------------------|
|----------------------|------------------------|
|----------------------|------------------------|
|-10-------------------|-(10)-------------------|
|--x-------------------|------------------------|
|--8-------------------|--(8)-------------------|
|
| Gtr VI
|  PM--------------------------------------------
|  E E E E  E    E E E     E  E E E  E  E E E
|----------------------|------------------------|
|----------------------|------------------------|
|--5-5-5-5--5----5-5-5-|---5--5-5-5--5--5-5-5---|
|--5-5-5-5--5----5-5-5-|---5--5-5-5--5--5-5-5---|
|--3-3-3-3--3----3-3-3-|---3--3-3-3--3--3-3-3---|
|----------------------|------------------------|


                                            Fsus2/C
   W                      +H        +Q.     S S
   |                       |         |      | |
   /                       /         /      / /

  +E  Q   E +E  a Q   E   +E  Q   E +E  Q   E
|-(3)-------------0---0-|-(0)-------------------|
|-----1---3-(3)-3s5---3-|-(3)-1---0-(0)-1-------|
|-----------------------|-------------------0---|
|-----------------------|-----------------------|
|-----------------------|-----------------------|
|-----------------------|-----------------------|
|
|  W                       W
|-----------------------|-----------------------|
|-----------------------|-----------------------|
|-----------------------|-----------------------|
|-----------------------|-----------------------|
|-----------------------|-----------------------|
|-----------------------|-----------------------|
|
|-------------------------------------------|
|  E  E E E  E    E E E    E  E E E  E  E E E
|-----------------------|-----------------------|
|-----------------------|-----------------------|
|--5--5-5-5--5----5-5-5-|--5--5-5-5--5--5-5-5---|
|--5--5-5-5--5----5-5-5-|--5--5-5-5--5--5-5-5---|
|--3--3-3-3--3----3-3-3-|--3--3-3-3--3--3-3-3---|
|-----------------------|-----------------------|


   W                      +H        +Q.     S S
   |                       |         |      | |
   /                       /         /      / /

  +Q    E E +E  a Q   E   +E  Q   E +E  Q   E
|-------0-0-(0)---0---0-|-(0)---------------3---|
|-------1-3-(3)-3s5---3-|-(3)-1---0-(0)-1-------|
|-(0)-------------------|-----------------------|
|-----------------------|-----------------------|
|-----------------------|-----------------------|
|-----------------------|-----------------------|
|
|  PM--------------------------------------------
|  E  E E E  E    E E E    E  E E E  E  E E E
|-----------------------|-----------------------|
|-----------------------|-----------------------|
|-----------------------|-----------------------|
|--3--3-3-3--3----3-3-3-|--3--3-3-3--3--3-3-3---|
|--3--3-3-3--3----3-3-3-|--3--3-3-3--3--3-3-3---|
|--1--1-1-1--1----1-1-1-|--1--1-1-1--1--1-1-1---|


                                            C/G
   W                      +H        +Q.     S S
   |                       |         |      | |
   /                       /         /      / /

  +E  Q   E +E  a Q   E   +E  Q   E +E  Q   E
|-(3)-------------0---0-|-(0)-------------------|
|-----1---3-(3)-3s5---3-|-(3)-1---0-(0)-1-------|
|-----------------------|-------------------0---|
|-----------------------|-----------------------|
|-----------------------|-----------------------|
|-----------------------|-----------------------|
|
|-------------------------------------------|
|  E  E E E  E    E E E    E  E E E  E  E E E
|-----------------------|-----------------------|
|-----------------------|-----------------------|
|-----------------------|-----------------------|
|--3--3-3-3--3----3-3-3-|--3--3-3-3--3--3-3-3---|
|--3--3-3-3--3----3-3-3-|--3--3-3-3--3--3-3-3---|
|--1--1-1-1--1----1-1-1-|--1--1-1-1--1--1-1-1---|


   W                    +H       +Q.    S S
   |                     |        |     | |
   /                     /        /     / /

  +Q   E E +E  a Q  E   +E  Q  E +E  Q  E
|------0-0-(0)---0--0-|-(0)-------------3---|
|------1-3-(3)-3s5--3-|-(3)-1--0-(0)-1------|
|-(0)-----------------|---------------------|
|---------------------|---------------------|
|---------------------|---------------------|
|---------------------|---------------------|


                                        Fsus2/C
   W                    +H       +Q.    S S
   |                     |        |     | |
   /                     /        /     / /

  +E  Q  E +E  a Q  E   +E  Q  E +E  Q  E
|-(3)------------0--0-|-(0)-----------------|
|-----1--3-(3)-3s5--3-|-(3)-1--0-(0)-1------|
|---------------------|-----------------0---|
|---------------------|---------------------|
|---------------------|---------------------|
|---------------------|---------------------|


  Fsus2/C
  Gtr II
  Q   E E +E  a Q   E   +E  Q   E +E  Q   E
|-----0-0-(0)---0---0-|-(0)-------------------|
|-----1-3-(3)-3s5---3-|-(3)-1---0-(0)-1-------|
|-0-------------------|-------------------0---|
|---------------------|-----------------------|
|---------------------|-----------------------|
|---------------------|-----------------------|
|
| Gtr I
| W                     +H        +Q.     S S
|-1-------------------|-(1)-------(1)-----1-1-|
|-1-------------------|-(1)-------(1)-----1-1-|
|-0-------------------|-(0)-------(0)-----0-0-|
|-3-------------------|-(3)-------(3)-----3-3-|
|-3-------------------|-(3)-------(3)-----3-3-|
|---------------------|-----------------------|
|
| Gtr VI
| PM-------------------------------------------
| E E E E  E    E E E    E  E E E  E  E E E
|---------------------|-----------------------|
|---------------------|-----------------------|
|---------------------|-----------------------|
|-3-3-3-3--3----3-3-3-|--3--3-3-3--3--3-3-3---|
|-3-3-3-3--3----3-3-3-|--3--3-3-3--3--3-3-3---|
|-1-1-1-1--1----1-1-1-|--1--1-1-1--1--1-1-1---|


                                   D.S. al Coda
  +Q    E E +E  a Q   E   +E  Q   E +E  Q.
|-------0-0-(0)---0---0-|-(0)-------------------||
|-------1-3-(3)-3s5---3-|-(3)-1---0-(0)-1-------||
|-(0)-------------------|-----------------------||
|-----------------------|-----------------------||
|-----------------------|-----------------------||
|-----------------------|-----------------------||
|
|            <
|  H        +H             E  E E E  E  E  E E
|--1--------(1)---------|--1--1-1-1--1--1--1-1--||
|--1--------(1)---------|--1--1-1-1--1--1--1-1--||
|--0--------(0)---------|--0--0-0-0--0--0--0-0--||
|--3--------(3)---------|--3--3-3-3--3--3--3-3--||
|--3--------(3)---------|--3--3-3-3--3--3--3-3--||
|-----------------------|-----------------------||
|
|--------------------------------------------|
|  E  E E E  E    E E E    E  E E E  E  E  E E
|-----------------------|-----------------------||
|-----------------------|-----------------------||
|-----------------------|-----------------------||
|--3--3-3-3--3----3-3-3-|--3--3-3-3--3--3--3-3--||
|--3--3-3-3--3----3-3-3-|--3--3-3-3--3--3--3-3--||
|--1--1-1-1--1----1-1-1-|--1--1-1-1--1--1--1-1--||


   Chorus 2
    &
    F5                 C5
    Gtr I
    Q  E E +E  E E E   Q  E E +E  E E E
    |  | |  |  | | |   |  | |  |  | | |
    /  / /  /  / / x   /  / /  /  / / x

    Gtr III
    Q  E E +E  E E E   Q  E E +E  E E E
||-------------------|------------------|
||o------------------|-1--1-1-(1)-1-1---|
||--2--2-2-(2)-2-2---|-0--0-0-(0)-0-0---|
||--3--3-3-(3)-3-3-0-|-2--2-2-(2)-2-2-0-|
||o-3--3-3-(3)-3-3-0-|-3--3-3-(3)-3-3-0-|
||--1--1-1-(1)-1-1-0-|-3--3-3-(3)-3-3-0-|
|
|   Gtr IV
|   Q  E E +E  E E E   Q  E E +E  E E E
||--3--3-3-(3)-3-3-3-|-3--3-3-(3)-3-3-3-|
||o-1--1-1-(1)-1-1-0-|-1--1-1-(1)-1-1-0-|
||--2--2-2-(2)-2-2-0-|-0--0-0-(0)-0-0-0-|
||--3--3-3-(3)-3-3-0-|-2--2-2-(2)-2-2-0-|
||o------------------|-3--3-3-(3)-3-3---|
||-------------------|------------------|


  F5                 C5             G/B
  Q  E E +E  E E E   Q  E S S E S S E S S
  |  | |  |  | | |   |  | | | | | | | | |
  /  / /  /  / / x   /  / x x / x x / x x

  Q  E E +E  E E E   Q  E E   E E   E E
|------------------|----------------------|
|------------------|-1--1-1---------------|
|-2--2-2-(2)-2-2---|-0--0-0---0-0---0-0---|
|-3--3-3-(3)-3-3-0-|-2--2-2---2-2---0-0---|
|-3--3-3-(3)-3-3-0-|-3--3-3---3-3---2-2---|
|-1--1-1-(1)-1-1-0-|-3--3-3---------------|
|
| Q  E E +E  E E E   Q  E E   E E   E E
|-3--3-3-(3)-3-3-3-|-3--3-3---3-3---3-3---|
|-1--1-1-(1)-1-1-0-|-1--1-1---1-1---0-0---|
|-2--2-2-(2)-2-2-0-|-0--0-0---0-0---0-0---|
|-3--3-3-(3)-3-3-0-|-2--2-2---2-2---0-0---|
|------------------|-3--3-3---3-3---2-2---|
|------------------|----------------------|


  Am                 D
  Q  E E +E  E E E   Q   E E +E  E E E
  |  | |  |  | | |   |   | |  |  | | |
  /  / /  /  / / /   /   / /  /  / / /

  Q  E E +E  E E E   Q   E E +E  E E E
|------------------|-2---2-2-(2)-2-2----||
|------------------|-3---3-3-(3)-3-3---o||
|-2--2-2-(2)-2-2---|-2---2-2-(2)-2-2----||
|-2--2-2-(2)-2-2-0-|-0---0-0-(0)-0-0-0--||
|-0--0-0-(0)-0-0-0-|-0---0-0-(0)-0-0-0-o||
|----------------0-|-----------------0--||
|
| Q  E E +E  E E E   E E E E +E  E E E
|-0--0-0-(0)-0-0-0-|-2-2-2-2-(2)-2-2-x--||
|-1--1-1-(1)-1-1-1-|-3-3-3-3-(3)-3-3-x-o||
|-2--2-2-(2)-2-2-2-|-2-2-2-2-(2)-2-2-x--||
|-2--2-2-(2)-2-2-2-|-0-0-0-0-(0)-0-0-x--||
|-0--0-0-(0)-0-0-0-|-------------------o||
|------------------|--------------------||


  F5                              C5
  E E E E E E E E   E E E E E E E S S
  | | | | | | | |   | | | | | | | | |
  / / / / / / / /   / / / / / / / / /

  Gtrs III, V
  E E E E E E E E   E E E E E E E S S
|-----------------|--------------------||
|-----------------|--------------------||
|-----------------|--------------------||
|-3-3-3-3-5-5-5-5-|-7-7-7-7-9-9-9-x-x--||
|-x-x-x-x-x-x-x-x-|-x-x-x-x-x-x-x-x-x--||
|-1-1-1-1-3-3-3-3-|-5-5-5-5-7-7-7-x-x--||
|
| E E E E E E E E   E E E E E E E E
|-3-3-3-3-3-3-3-3-|-3-3-3-3-3-3-3-3----||
|-1-1-1-1-1-1-1-1-|-1-1-1-1-1-1-1-0----||
|-2-2-2-2-2-2-2-2-|-2-2-2-2-2-2-2-0----||
|-3-3-3-3-3-3-3-3-|-3-3-3-3-3-3-3-0----||
|-----------------|--------------------||
|-----------------|--------------------||


 Interlude
  C5                         G/B
  Gtr I
   E  E  E  E  E   E  E  E   E  E E E  E  E E E
   |  |  |  |  |   |  |  |   |  | | |  |  | | |
   /  /  /  /  /   /  /  /   /  / / /  /  / / /

  Gtr II
   Q.       E +E   E  E  E   Q.     E +E  E E E
|-----------3-(3)----------|--------3-(3)-------|
|------------------1-------|--------------1-----|
|------------------------0-|------------------0-|
|--------------------------|--------------------|
|--3------------------3----|-2--------------3---|
|--------------------------|--------------------|
|
| Gtr III
|  Q     E  E  E   E  E  E   Q    E E  E  E E E
|--------------------------|--------------------|
|--------------------------|--------------------|
|--------------------------|--------------------|
|-10----10-10-10--10-10-10-|-9----9-9--9--9-9-9-|
|--x-----x--x--x---x--x--x-|-x----x-x--x--x-x-x-|
|--8-----8--8--8---8--8--8-|-7----7-7--7--7-7-7-|


  C5                         G/B
   E  E  E  E  E   E  E  E   E  E E E  E  E E E
   |  |  |  |  |   |  |  |   |  | | |  |  | | |
   /  /  /  /  /   /  /  /   /  / / /  /  / / /

   Q.       E +E   E  E  E   Q.     E +E  E E E
|-----------3-(3)----------|--------3-(3)-------||
|------------------1-------|--------------1-----||
|------------------------0-|------------------0-||
|--------------------------|--------------------||
|--3------------------3----|-2--------------3---||
|--------------------------|--------------------||
|
|  Q     E  E  E   E  E  E   Q    E E  E  E E E
|--------------------------|--------------------||
|--------------------------|--------------------||
|--------------------------|--------------------||
|-10----10-10-10--10-10-10-|-9----9-9--9--9-9-9-||
|--x-----x--x--x---x--x--x-|-x----x-x--x--x-x-x-||
|--8-----8--8--8---8--8--8-|-7----7-7--7--7-7-7-||


   Bridge
    Gtr I
     E  E  E  E  E   E  E  E   E  E E E  E  E E E
     |  |  |  |  |   |  |  |   |  | | |  |  | | |
     /  /  /  /  /   /  /  /   /  / / /  /  / / /

    Gtr II
     Q.       E +E   E  E  E   Q.     E +E  E E E
||------------3-(3)----------|--------3-(3)-------|
||o------------------1-------|--------------1-----|
||-------------------------0-|------------------0-|
||---------------------------|--------------------|
||o--3------------------3----|-2--------------3---|
||---------------------------|--------------------|
|
|   Gtr III
|    Q     E  E  E   E  E  E   Q    E E  E  E E E
||---------------------------|--------------------|
||o--------------------------|--------------------|
||---------------------------|--------------------|
||--10----10-10-10--10-10-10-|-9----9-9--9--9-9-9-|
||o--x-----x--x--x---x--x--x-|-x----x-x--x--x-x-x-|
||---8-----8--8--8---8--8--8-|-7----7-7--7--7-7-7-|


   E  E  E  E  E   E  E  E   E  E E E  E  E E E
   |  |  |  |  |   |  |  |   |  | | |  |  | | |
   /  /  /  /  /   /  /  /   /  / / /  /  / / /

   Q.       E +E   E  E  E   Q.     E +E  E E E
|-----------3-(3)----------|--------3-(3)---------||
|------------------1-------|--------------1------o||
|------------------------0-|------------------0---||
|--------------------------|----------------------||
|--3------------------3----|-2--------------3----o||
|--------------------------|----------------------||
|
|  Q     E  E  E   E  E  E   Q    E E  E  E E E
|--------------------------|----------------------||
|--------------------------|---------------------o||
|--------------------------|----------------------||
|-10----10-10-10--10-10-10-|-9----9-9--9--9-9-9---||
|--x-----x--x--x---x--x--x-|-x----x-x--x--x-x-x--o||
|--8-----8--8--8---8--8--8-|-7----7-7--7--7-7-7---||


  Fadd9              Gadd4/B            Fadd9              Gadd4/B
  Gtrs II, IV
  Q.   E +E  E E E   Q.   E +E  E E E   Q.   E +E  E E E   Q.   E +E  E E E
|------3-(3)-------|------3-(3)-------|------3-(3)-------|------3-(3)-------|
|------------1-----|------------1-----|------------1-----|------------1-----|
|----------------0-|----------------0-|----------------0-|----------------0-|
|------------------|------------------|------------------|------------------|
|-3------------3---|-2------------2---|-3------------3---|-2------------2---|
|------------------|------------------|------------------|------------------|
|
| Gtrs III, IV
| Q.   E +Q    Q     Q.   E +Q    Q     Q.   E +Q    Q     Q.   E +Q    Q
|------------------|------------------|------------------|------------------|
|------------------|------------------|------------------|------------------|
|------------------|------------------|------------------|------------------|
|------------------|------------------|------------------|------------------|
|-0------------0---|-2------------2---|-3------------3---|-5------------5---|
|------1-(1)-------|------3-(3)-------|------5-(5)-------|------7-(7)-------|


  W                  W                  W
  Q.   E +E  E E E   Q.   E +E  E E E   W
|------3-(3)-------|------3-(3)-------|----------|
|------------1-----|------------1-----|----------|
|----------------0-|----------------0-|----------|
|------------------|------------------|----------|
|-3------------3---|-2------------2---|----------|
|------------------|------------------|----------|
|
| Q.   E +Q    Q     Q.   E +Q    E E   W
|------------------|------------------|----------|
|------------------|------------------|----------|
|------------------|------------------|----------|
|------------------|------------------|----------|
|-0------------0---|-2------------2-3-|----------|
|------1-(1)-------|------3-(3)-------|----------|


  D
  Gtr IV
   S S S S  S S S S  S S S S S  S S S
   | | | |  | | | |  | | | | |  | | |
   / / / /  / / / /  / / / / /  / / /

  Gtr II
   Q        Q        Q       Q
|--------------------------------------||
|--------------------------------------||
|--------------------------------------||
|--------------------------------------||
|--------------------------------------||
|-17s======13s======10s======5\--------||
|
| Gtrs I, III
|  S S S S  S S S S  S S S S S  S S S
|--------------------------------------||
|--------------------------------------||
|--7-7-7-7--7-7-7-7--7-7-7-7-7--7-7-7--||
|--7-7-7-7--7-7-7-7--7-7-7-7-7--7-7-7--||
|--5-5-5-5--5-5-5-5--5-5-5-5-5--5-5-5--||
|--------------------------------------||


 Guitar Solo
  F5                     C5
  Gtr I
  Q   E E +E  E E E       Q     E     E +E  E E E
  |   | |  |  | | |       |     |     |  |  | | |
  /   / /  /  / / x       /     /     /  /  / / x

  Gtr III
  Q   E E +E  E E E       Q     E     E +E  E E E
|----------------------|--------------------------|
|----------------------|--1-----1-----1-(1)-1-1---|
|-2---2-2-(2)-2-2------|--0-----0-----0-(0)-0-0---|
|-3---3-3-(3)-3-3-0----|--2-----2-----2-(2)-2-2-0-|
|-3---3-3-(3)-3-3-0----|--3-----3-----3-(3)-3-3-0-|
|-1---1-1-(1)-1-1-0----|--3-----3-----3-(3)-3-3-0-|
|
| Gtr IV
| Q   E E +E  E E E       Q     E     E +E  E E E
|-3---3-3-(3)-3-3-3----|--3-----3-----3-(3)-3-3-3-|
|-1---1-1-(1)-1-1-0----|--1-----1-----1-(1)-1-1-0-|
|-2---2-2-(2)-2-2-0----|--0-----0-----0-(0)-0-0-0-|
|-3---3-3-(3)-3-3-0----|--2-----2-----2-(2)-2-2-0-|
|----------------------|--3-----3-----3-(3)-3-3---|
|----------------------|--------------------------|
|
| Gtr II
|                               |-3-|
| E E E E +Q    E E      +E   E S S S E  E  E E E
|-------3-(3)----------|--------------------------|
|-----------------5b6==|=(5)r-5-3h5p3s1--3--1-----|
|---0h2---------0------|----------------------2p0-|
|----------------------|--------------------------|
|----------------------|--------------------------|
|----------------------|--------------------------|


  F5                       C5                 G/B
   Q    E E +E  E E E       Q     E S S E S S E S S
   |    | |  |  | | |       |     | | | | | | | | |
   /    / /  /  / / x       /     / x x / x x / x x

   Q    E E +E  E E E       Q     E E   E E   E E
|------------------------|---------------------------|
|------------------------|--1-----1-1----------------|
|--2----2-2-(2)-2-2------|--0-----0-0---0-0---0-0----|
|--3----3-3-(3)-3-3-0----|--2-----2-2---2-2---0-0----|
|--3----3-3-(3)-3-3-0----|--3-----3-3---3-3---2-2----|
|--1----1-1-(1)-1-1-0----|--3-----3-3----------------|
|
|  Q    E E +E  E E E       Q     E E   E E   E E
|--3----3-3-(3)-3-3-3----|--3-----3-3---3-3---3-3----|
|--1----1-1-(1)-1-1-0----|--1-----1-1---1-1---0-0----|
|--2----2-2-(2)-2-2-0----|--0-----0-0---0-0---0-0----|
|--3----3-3-(3)-3-3-0----|--2-----2-2---2-2---0-0----|
|------------------------|--3-----3-3---3-3---2-2----|
|------------------------|---------------------------|
|
| +E  E E E +Q    E E      +E   E E E   E E   E E
|---------3-(3)----------|---------------------------|
|-------------------5b6==|=(5)r-5-3h5---3s1----------|
|-(0)-0h2---------0------|--------------------2p0----|
|------------------------|---------------------------|
|------------------------|---------------------------|
|------------------------|---------------------------|


  Am                                  D
  Q       E   E   +E    E   E   E     Q       E   E   +E  E E E
  |       |   |    |    |   |   |     |       |   |    |  | | |
  /       /   /    /    /   /   /     /       /   /    /  / / /

  Q       E   E   +E    E   E   E     Q       E   E   +E  E E E
|-----------------------------------|-2-------2---2---(2)-2-2---|
|-----------------------------------|-3-------3---3---(3)-3-3---|
|-2-------2---2---(2)---2---2-------|-2-------2---2---(2)-2-2---|
|-2-------2---2---(2)---2---2---0---|-0-------0---0---(0)-0-0-0-|
|-0-------0---0---(0)---0---0---0---|-0-------0---0---(0)-0-0-0-|
|-------------------------------0---|-------------------------0-|
|
| Q       E   E   +E    E   E   E     E   E   E   E   +E  E E E
|-0-------0---0---(0)---0---0---0---|-2---2---2---2---(2)-2-2-x-|
|-1-------1---1---(1)---1---1---1---|-3---3---3---3---(3)-3-3-x-|
|-2-------2---2---(2)---2---2---2---|-2---2---2---2---(2)-2-2-x-|
|-2-------2---2---(2)---2---2---2---|-0---0---0---0---(0)-0-0-x-|
|-0-------0---0---(0)---0---0---0---|---------------------------|
|-----------------------------------|---------------------------|
|
| S S S S S S S S  S  S S S S S S S   S S S S S S S S  E  E E E
|-----------------------------------|---------------------------|
|-1h3p1---1-------------------------|---------------------------|
|-------2---2p0----0----------------|---------------------------|
|---------------2-----2p0---0h2p0---|-0h2p0---0h2p0----0--------|
|-------------------------3-------3-|-------3-------3-----3-0-3-|
|-----------------------------------|---------------------------|


  F5                   C5
   Q    E E +E E E E   Q   E E +E  E E E
   |    | |  | | | |   |   | |  |  | | |
   /    / /  / / / x   /   / /  /  / / x

   Q    E E +E E E E   Q   E E +E  E E E
|--------------------|----------------------|
|--------------------|-1---1-1-(1)-1-1------|
|--2----2-2-(2)2-2---|-0---0-0-(0)-0-0------|
|--3----3-3-(3)3-3-0-|-2---2-2-(2)-2-2-0----|
|--3----3-3-(3)3-3-0-|-3---3-3-(3)-3-3-0----|
|--1----1-1-(1)1-1-0-|-3---3-3-(3)-3-3-0----|
|
|  Q    E E +E E E E   Q   E E  E  E E E
|--3----3-3-(3)3-3-3-|-3---3-3--3--3-3-3----|
|--1----1-1-(1)1-1-0-|-1---1-1--1--1-0-0----|
|--2----2-2-(2)2-2-0-|-0---0-0--0--0-0-0----|
|--3----3-3-(3)3-3-0-|-2---2-2--2--2-0-0----|
|--------------------|-3---3-3--3--3-2-2----|
|--------------------|----------------------|
|
| +E  E E E  E E E E   E E E E +E  E E E
|--------------------|----------------------|
|--------------------|-------5-(5)----------|
|--------------------|-------5-(5)---5-7b9==|
|----------------5---|-5h7-0-------7--------|
|-(3)-3-5-3--5s7---7-|-----0----------------|
|--------------------|----------------------|


  F5                     C5                   G/B
   Q    E E +E  E  E E   Q      E S S  E  S S E S S
   |    | |  |  |  | |   |      | | |  |  | | | | |
   /    / /  /  /  / x   /      / x x  /  x x / x x

   Q    E E +E  E  E E   Q      E E    E  E   E E
|----------------------|----------------------------|
|----------------------|-1------1-1-----------------|
|--2----2-2-(2)-2--2---|-0------0-0----0--0---0-0---|
|--3----3-3-(3)-3--3-0-|-2------2-2----2--2---0-0---|
|--3----3-3-(3)-3--3-0-|-3------3-3----3--3---2-2---|
|--1----1-1-(1)-1--1-0-|-3------3-3-----------------|
|
|  Q    E E +E  E  E E   Q      E E    E  E   E E
|--3----3-3-(3)-3--3-3-|-3------3-3----3--3---3-3---|
|--1----1-1-(1)-1--1-0-|-1------1-1----1--1---0-0---|
|--2----2-2-(2)-2--2-0-|-0------0-0----0--0---0-0---|
|--3----3-3-(3)-3--3-0-|-2------2-2----2--2---0-0---|
|----------------------|-3------3-3----3--3---2-2---|
|----------------------|----------------------------|
|
|                            ~~~~~~~~~~~~~
| +E  e e e  E +E  E E   S S Q.       +Q      E E
|----------------------|----------------------------|
|----------------------|----------------------0-0---|
|-(7)-7-7-7--7r(7)-5h7-|-5h7-5--------(5)-----0-0---|
|----------------------|----------------------0-0---|
|----------------------|----------------------------|
|----------------------|----------------------------|


  Am                       D
  Q     E E +E   E E E     Q   E   E +E  E E E
  |     | |  |   | | |     |   |   |  |  | | |
  /     / /  /   / / /     /   /   /  /  / / /

  Q     E E +E   E E E     Q   E   E +E  E E E
|------------------------|-2---2---2-(2)-2-2----||
|------------------------|-3---3---3-(3)-3-3----||
|-2-----2-2-(2)--2-2-----|-2---2---2-(2)-2-2----||
|-2-----2-2-(2)--2-2-0---|-0---0---0-(0)-0-0-0--||
|-0-----0-0-(0)--0-0-0---|-0---0---0-(0)-0-0-0--||
|--------------------0---|-------------------0--||
|
| Q     E E +E   E E E     E E E   E +E  E E E
|-0-----0-0-(0)--0-0-0---|-2-2-2---2-(2)-2-2-x--||
|-1-----1-1-(1)--1-1-1---|-3-3-3---3-(3)-3-3-x--||
|-2-----2-2-(2)--2-2-2---|-2-2-2---2-(2)-2-2-x--||
|-2-----2-2-(2)--2-2-2---|-0-0-0---0-(0)-0-0-x--||
|-0-----0-0-(0)--0-0-0---|----------------------||
|------------------------|----------------------||
|
| E S S E E  S S E E S S   E E S S E  E  E E E
|------------------------|----------------------||
|-5----------------------|----------------------||
|-5-------5--------5-----|---5------------------||
|---7p5------7p5-----7p5-|---5------------------||
|-------7--------7-------|-7---7p5s3--5--3------||
|------------------------|-----------------5-3--||


   Chorus 3
    F5                   C5                  F5
    Gtr I
    Q  E E +E  E E  E    Q   E E +E  E E E   Q  E E +E  E E E
    |  | |  |  | |  |    |   | |  |  | | |   |  | |  |  | | |
    /  / /  /  / /  x    /   / /  /  / / x   /  / /  /  / / x

    Gtr III
    Q  E E +E  E E  E    Q   E E +E  E E E   Q  E E +E  E E E
||---------------------|-------------------|------------------|
||o--------------------|-1---1-1-(1)-1-1---|------------------|
||--2--2-2-(2)-2-2-----|-0---0-0-(0)-0-0---|-2--2-2-(2)-2-2---|
||--3--3-3-(3)-3-3--0--|-2---2-2-(2)-2-2-0-|-3--3-3-(3)-3-3-0-|
||o-3--3-3-(3)-3-3--0--|-3---3-3-(3)-3-3-0-|-3--3-3-(3)-3-3-0-|
||--1--1-1-(1)-1-1--0--|-3---3-3-(3)-3-3-0-|-1--1-1-(1)-1-1-0-|
|
|   Gtr IV
|   Q  E E +E  E E  E    Q   E E  E  E E E   Q  E E +E  E E E
||--3--3-3-(3)-3-3--3--|-3---3-3--3--3-3-3-|-3--3-3-(3)-3-3-3-|
||o-1--1-1-(1)-1-1--0--|-1---1-1--1--1-0-0-|-1--1-1-(1)-1-1-0-|
||--2--2-2-(2)-2-2--0--|-0---0-0--0--0-0-0-|-2--2-2-(2)-2-2-0-|
||--3--3-3-(3)-3-3--0--|-2---2-2--2--2-0-0-|-3--3-3-(3)-3-3-0-|
||o--------------------|-3---3-3--3--3-2-2-|------------------|
||---------------------|-------------------|------------------|
|
|   Gtr II
|   H      +Q.     +E    H.            Q     W
||---------------------|-------------------|------------------|
||o--------------------|-------------------|------------------|
||---------------------|-------------------|------------------|
||---------------------|-------------------|------------------|
||o--------------------|-------------------|------------------|
||--1------(1)-----(1)s|=8-----------------|------------------|


  C5             G/B     Am                 D
  Gtr I
  Q  E S S E S S E S S   Q  E E +E  E E E   Q   E E +E  E E E
  |  | | | | | | | | |   |  | |  |  | | |   |   | |  |  | | |
  /  / x x / x x / x x   /  / /  /  / / /   /   / /  /  / / /

  Gtr III
  Q  E E   E E   E E     Q  E E +E  E E E   Q   E E +E  E E E  3x
|----------------------|------------------|-2---2-2-(2)-2-2----||
|-1--1-1---------------|------------------|-3---3-3-(3)-3-3---o||
|-0--0-0---0-0---0-0---|-2--2-2-(2)-2-2---|-2---2-2-(2)-2-2----||
|-2--2-2---2-2---0-0---|-2--2-2-(2)-2-2-0-|-0---0-0-(0)-0-0-0--||
|-3--3-3---3-3---2-2---|-0--0-0-(0)-0-0-0-|-0---0-0-(0)-0-0-0-o||
|-3--3-3---------------|----------------0-|-----------------0--||
|
| Gtr IV
| Q  E E   E E   E E     Q  E E +E  E E E   E E E E +E  E E E  3x
|-3--3-3---3-3---3-3---|-0--0-0-(0)-0-0-0-|-2-2-2-2-(2)-2-2-x--||
|-1--1-1---1-1---0-0---|-1--1-1-(1)-1-1-1-|-3-3-3-3-(3)-3-3-x-o||
|-0--0-0---0-0---0-0---|-2--2-2-(2)-2-2-2-|-2-2-2-2-(2)-2-2-x--||
|-2--2-2---2-2---0-0---|-2--2-2-(2)-2-2-2-|-0-0-0-0-(0)-0-0-x--||
|-3--3-3---3-3---2-2---|-0--0-0-(0)-0-0-0-|-------------------o||
|----------------------|------------------|--------------------||


 Outro
  F5
  Gtr I
  E E E E E E E E   E E E E E E E E      E  E  E  E  E  E  E  E
  | | | | | | | |   | | | | | | | |      |  |  |  |  |  |  |  |
  / / / / / / / /   / / / / / / / /      /  /  /  /  /  /  /  /

  Gtrs III, V
  E E E E E E E E   E E E E E E E E      E  E  E  E  E  E  E  E
|-----------------|-------------------|--------------------------|
|-----------------|-------------------|--------------------------|
|-----------------|-------------------|--------------------------|
|-3-3-3-3-5-5-5-5-|-7-7-7-7-9-9-9-9---|-10-10-10-10-12-12-12-12--|
|-x-x-x-x-x-x-x-x-|-x-x-x-x-x-x-x-x---|--x--x--x--x--x--x--x--x--|
|-1-1-1-1-3-3-3-3-|-5-5-5-5-7-7-7-7---|--8--8--8--8-10-10-10-10--|
|
| Gtr IV
| E E E E E E E E   E E E E E E E S S    E  E  E  E  E  E  E  E
|-3-3-3-3-3-3-3-3-|-3-3-3-3-3-3-3-x-x-|--1--1--1--1--1--1--1--1--|
|-1-1-1-1-1-1-1-1-|-1-1-1-1-1-1-1-x-x-|--1--1--1--1--1--1--1--1--|
|-2-2-2-2-2-2-2-2-|-2-2-2-2-2-2-2-x-x-|--2--2--2--2--2--2--2--2--|
|-3-3-3-3-3-3-3-3-|-3-3-3-3-3-3-3-x-x-|--3--3--3--3--3--3--3--3--|
|-----------------|-------------------|--3--3--3--3--3--3--3--3--|
|-----------------|-------------------|--1--1--1--1--1--1--1--1--|


                       C/G
   E  E  E  E  E  E  E S S    W           +W
   |  |  |  |  |  |  | | |    |            |
   /  /  /  /  /  /  / / /    /            /

   E  E  E  E  E  E  E S S    W           +W
|--------------------------|-----------|---------*|
|--------------------------|-----------|---------*|
|--------------------------|-----------|---------*|
|-14-14-14-14-15-15-15-x-x-|-10--------|-(10)----*|
|--x--x--x--x--x--x--x-x-x-|--x--------|---------*|
|-12-12-12-12-13-13-13-x-x-|--8--------|--(8)----*|
|
|  E  E  E  E  E  E  E S S    W           +W
|--1--1--1--1--1--1--1-----|--3--------|--(3)----*|
|--1--1--1--1--1--1--1-----|--1--------|--(1)----*|
|--2--2--2--2--2--2--2-x-x-|--0--------|--(0)----*|
|--3--3--3--3--3--3--3-x-x-|--2--------|--(2)----*|
|--3--3--3--3--3--3--3-x-x-|--3--------|--(3)----*|
|--1--1--1--1--1--1--1-x-x-|-----------|---------*|


Duration Legend
---------------
W - whole; H - half; Q - quarter; E - 8th; S - 16th; T - 32nd; X - 64th; a - acciaccatura
+ - note tied to previous; . - note dotted; .. - note double dotted
Uncapitalized letters represent notes that are staccato (1/2 duration)
Irregular groupings are notated above the duration line
Duration letters will always appear directly above the note/fret number it represents the
duration for.  Duration letters with no fret number below them represent rests.  Multi-
bar rests are notated in the form Wxn, where n is the number of bars to rest for.  Low
melody durations appear below the staff

Tablature Legend
----------------
 h   - hammer-on
 p   - pull-off
 b   - bend
 pb  - pre-bend
 r   - bend release (if no number after the r, then release immediately)
 /\  - slide into or out of (from/to "nowhere")
 s   - legato slide
 S   - shift slide
  - natural harmonic
[n]  - artificial harmonic
n(n) - tapped harmonic
 ~   - vibrato
 tr  - trill
 T   - tap
 TP  - trem. picking
 PM  - palm muting
\n/  - tremolo bar dip; n = amount to dip
 \n  - tremolo bar down
 n/  - tremolo bar up
/n\  - tremolo bar inverted dip
 =   - hold bend; also acts as connecting device for hammers/pulls
 <>  - volume swell (louder/softer)
 x   - on rhythm slash represents muted slash
 o   - on rhythm slash represents single note slash

Misc Legend
-----------
 |  - bar
||  - double bar
||o - repeat start
o|| - repeat end
*|  - double bar (ending)
 :  - bar (freetime)
 $  - Segno
 &  - Coda
Tempo markers -  = BPM(8/16=s8/s16), where s8 = swing 8ths, s16 = swing 16ths


***************************************************************************************
* Generated using Power Tab Editor by Brad Larsen - http://powertab.guitarnetwork.org *
***************************************************************************************
Tap to rate this tab
 
# A B C D E F G H I J K L M N O P Q R S T U V W X Y Z