Song name
# A B C D E F G H I J K L M N O P Q R S T U V W X Y Z

Foo Fighters - Rope tab

E|--0--------0--------0--------0----|---0--------0--------0--------0-------|
B|--5--------12-------8--------8----|---5--------12-------8--------8-------|
G|--7--------14-------10-------10---|---7--------14-------10-------10------|
D|--7--------14-------10-------10---|---7--------14-------10-------10------|
A|----------------------------------|--------------------------------------|
E|----------------------------------|--------------------------------------|


E|----------------------------------|---0//00----0-//0-0--0-//0-0--0-0-0---|
B|----------------------------------|---5//05----12//0-12-8-//8-8--8-8-8---|
G|----------------------------------|---5//77----14//1414-10//0-10-101010--|
D|----------------------------------|---5//77----14//1414-10//1010-101010--|
A|----------------------------------|--------------------------------------|
E|----------------------------------|--------------------------------------|

____________________________________________________________________________


E|--------------|---00000--0-0-0-0-0---0-0-0-0-0----0-0-0-0-0--------------|
B|--------------|---55505--1212120-12--8-8-8-8-8----8-8-8-8-8--------------|
G|--------------|---77777--1414141414--1010100-10---1010100-10-------------|
D|--------------|---77777--1414141414--1010101010---1010101010-------------|
A|--0h2p0-7-5-0-|---------------------------------------------0------------|
E|--------------|----------------------------------------------------------|


E|--------------|----------------------------------------------------------|
B|--------------|----------------------------------------------------------|
G|--------------|----------------------------------------------------------|
D|--------------|------------------7---------------------------------------|
A|--0h2p0-7-5-0-|-------5---9-9-9-9-9--------------------------0-----------|
E|--------------|---7777-7-------------10101010810--10101010810------------|

____________________________________________________________________________


E|------00000----0-0-0-0-0-----0-0-0-0-0-----0-0-0-------------------------|
B|------55505----1212120-12----8-8-8-8-8-----8-8-8-------------------------|
G|------77777----1414141414----1010100-10----101010------------------------|
D|------77777----1414141414----1010101010----101010------------------------|
A|-------------------------------------------------------0h2p0-7-5-0-------|
E|-------------------------------------------------------------------------|


E|-------------------------------------------------------------------------|
B|-------------------------------------------------------------------------|
G|-----------------------------10101010910---10101010----------------------|
D|----------------------7--------------------------------------------------|
A|----------5----9-9-9-9-9-----8-8-8-8-78----8-8-8-8-----0h2p0-7-5-0-------|
E|------7777-7-------------------------------------------------------------|

____________________________________________________________________________

E|-------3--3-3333-------0--0-000----0-------0--0-0000-----0--0-000---0----|
B|-------3--3-3333-------3--3-333----0-------0--0-0000-----2--2-222---0----|
G|-------0--0-0000-------0--0-000----0----4--4--4-4444--2--2--2-222---0----|
D|----0--0--0-0000-------------------0----4--4--4-4444--2--2--2-222---0----|
A|----2-----2-2222----2-----2-222---------2-----2-2222--0-----0-000--------|
E|----3-----3-3333----0-----0-000------------------------------------------|


E|-------------------------------------------------------------------------|
B|-------------------------------------------------------------------------|
G|-------------------------------------------------------------------------|
D|-------------------------------------------------------------------------|
A|-------5-5-5--555------7-7-7--777------7-7-7--777------9-9-9--999--------|
E|-------3-3-3--333------4-4-4--444------5-5-5--555------6-6-6--666--------|


E|-------------------------------------------------------------------------|
B|-------------------------------------------------------------------------|
G|---4-4-44-6-7-7-77-9-1010101O-12-14-4-4-44-6-7-7-77-9-10101010-16-14-----|
D|-------------------------------------------------------------------------|
A|---2-2-22-4-5-5-55-7-8-8-8-8--10-12-2-2-22-4-5-5-55-7-8-8-8-8--14-12-----|
E|-------------------------------------------------------------------------|


E|-------------------------------------------------------------------------|
B|-------------------------------------------------------------------------|
G|-----------7-9-----------7-9-----------7-9-----------7-9-----------------|
D|-----9-7-9-7-9-----9-7-9-7-9-----9-7-9-7-9-----9-7-9-7-9-----------------|
A|-----9-7-9-5-7-----9-7-9-5-7-----9-7-9-5-7-----9-7-9-5-7-----------------|
E|-----7-5-7-5-7-----7-5-7-5-7-----7-5-7-5-7-----7-5-7-5-7-----12s____-----|


E|---------------------------0--------------------------0------------------|
B|---------------------------0--------------------------0------------------|
G|----------7-9--------------------------7-9-------------------------------|
D|------9-7-9-7-9--5-5-5-7---------9-7-9-7-9--5-5-5-7----------------------|
A|------9-7-9-5-7--5-5-5-7-2-------9-7-9-5-7--5-5-5-7-2--------------------|
E|------7-5-7-5-7--3-3-3-5-0-------7-5-7-5-7--3-3-3-5-0--------------------|



                         Tab By.Warren G.
Tap to rate this tab
 
# A B C D E F G H I J K L M N O P Q R S T U V W X Y Z