Guitaretab - guitar tabs
Song name
# A B C D E F G H I J K L M N O P Q R S T U V W X Y Z

Foo Fighters - Arlandria tab

-------------------------------------------------------------------------------
			     Arlandria - Foo Fighters
-------------------------------------------------------------------------------
Tabbed by: Jimbompaleen
Email: poo_face_63@hotmail.com

Tuning:Standard

This is all tuned by ear and by watching their live vids religiously =P
Sounds right enough to me.

Guitar 1: Dave Grohl
Guitar 2: Chris Shiflett


Intro
Guitars 1 and 2
e|-----------------------------------------------------------------------------|
B|-----------------------------------------------------------------------------|
G|-----------------------------------------------------------------------------|
D|-----------------------------------------------------------------------------|
A|------11-9--11------------11-9--------------11-9--11------------11-9--11-----|
E|-9-12----------12\---9-12-------12-9---9-12----------12\---9-12----------12~-|

									         


Verse
Guitar 1 x7 (He mutes the strings with his first finger.)
e|---------------------------------|
B|---------------------------------|
G|-4-4-4-4-4-4-4-4-4-4-4-3-3-3-3-3-|
D|-x-x-x-x-x-x-x-x-x-x-x-x-x-x-x-x-|
A|-4-4-4-0-0-0-0-0-x-x-x-x-x-x-x-x-|
E|-----------------0-0-0-2-2-2-2-2-|

After the 4th time, Guitar 2 joins in with the same thing.

Pre-Chorus
Guitar 1 plays verse riff twice

Guitar 2 x2
e|----------------------------|
B|-9---9--9---9--9---9--9---9-|
G|-11b----11b----11b----11b---|
D|----------------------------|
A|----------------------------|
E|----------------------------|



Chorus
Guitar 1 and 2
e|------------------------------------------------------------------|
B|------------------------------------------------------------------|
G|-6-6-6-6-6-6-6-6-2-2-2-2-2-2-2-2-1-1-1-1-1-1-1-1-4-4-4-4-4--------|
D|-6-6-6-6-6-6-6-6-2-2-2-2-2-2-2-2-2-2-2-2-2-2-2-2-4-4-4-4-4-4-4-4--|
A|-4-4-4-4-4-4-4-4-0-0-0-0-0-0-0-0-2-2-2-2-2-2-2-2-2-2-2-2-2-4-4-4--|
E|---------------------------------0-0-0-0-0-0-0-0-----------2-2-2--|

e|------------------------------------------------------------------|
B|------------------------------------------------------------------|
G|-6-6-6-6-6-6-6-6-2-2-2-2-2-2-2-2-1-1-1-1-1-1-1-1-4-4-4-4-5-5-5-5--|
D|-6-6-6-6-6-6-6-6-2-2-2-2-2-2-2-2-2-2-2-2-2-2-2-2-4-4-4-4-5-5-5-5--|
A|-4-4-4-4-4-4-4-4-0-0-0-0-0-0-0-0-2-2-2-2-2-2-2-2-2-2-2-2-3-3-3-3--|
E|---------------------------------0-0-0-0-0-0-0-0------------------|

Post Chorus
Guitar 1
e|-----------------------------------------------------------|
B|-----------------------------------------------------------|
G|-6--6-6--6-6-6---------------2--2-2--2-2-2-4-4-4-4-5-5-5-5-|
D|-6--6-6--6-6-6-4--4-4--4-4-4-2--2-2--2-2-2-4-4-4-4-5-5-5-5-|
A|-4--4-4--4-4-4-4--4-4--4-4-4-0--0-0--0-0-0-2-2-2-2-3-3-3-3-|
E|---------------2--2-2--2-2-2-------------------------------|


Guitar 2
e|-----------------------------------------------------------------|
B|-------------------------------------------7--7-7--7-8---8-8--8--|
G|-6--6-6--4h6p4-----------------------------9b---9b---10b---10----|
D|-6--6-6--------6-4---4-4---4/7-7---7--7-7------------------------|
A|-4--4-4----------------------------------------------------------|
E|-----------------------------------------------------------------|


Bridge
Guitar 1
e|---------------------------------|
B|-0-0-0-0-0-0-0-0-0-0-0-0-0-0-0-0-|
G|-4-4-4-4-4-4-4-4-4-4-4-3-3-3-3-3-|
D|---------------------------------|
A|---------------------------------|
E|---------------------------------|
[ Tab from: http://www.guitaretab.com/f/foo-fighters/276090.html ]
Guitar 2 (Bass line)
e|--------------------------|
B|--------------------------|
G|--------------------------|
D|--------------------------|
A|-4-0-4-0------------------|
E|-----------------0-0-4-2--|



Verse 2
Guitar 1 plays normal verse riff x4 

Guitar 2 x3
e|-------------0---------------0----|
B|-----0-----0---0-----0-----0---0--|
G|---4-----4---------4-----3--------|
D|-6-----4---------2-----4----------|
A|----------------------------------|
E|----------------------------------|
Then
e|-------------0-----------|
B|-----0-----0---0-----0---|
G|---4-----4---------4-----|
D|-6-----4---------2-----4-|
A|-------------------------|
E|-------------------------|


Verse 3
Guitars 1 and 2 x3
Not too sure on how he plays this part. I think he just mutes the other strings 
like he normally does in the verse
e|-------------------------------|
B|-------------------------------|
G|---4-----4---4-----4-----3---3-|
D|-------------------------------|
A|-4---4-0---0---0---------------|
E|-----------------0---0-2---2---|



Pre-chorus x2
Guitar 2 plays instead
e|--------------------------------|
B|-14--14--14--14--14--14--14--14-|
G|-16b-----16b-----16b-----16b----|
D|--------------------------------|
A|--------------------------------|
E|--------------------------------|


Chorus


Post Chorus


Bridge 2
Guitar 1 plays Chorus

Guitar 2
e|-0--0--0--0----------------------------------------0--0--0--0------------|
B|-5--5--4--2--0--0--------5-5-7--4-4-4--2-0-2p0-----5--5--4--2--0--0------|
G|-------------------2-1-------------------------1---------------------2-1-|
D|-------------------------------------------------------------------------|
A|-------------------------------------------------------------------------|
E|-------------------------------------------------------------------------|

e|----------------------|
B|-5-5-7--7-7-8--8-8-9\-|
G|----------------------|
D|----------------------|
A|----------------------|
E|----------------------|


Guitar 1 plays verse x10

Guitar 2 comes in after Guitar 1 plays riff 6 times
X2
e|----------------------------|
B|-9---9--9---9--9---9--9---9-|
G|-11b----11b----11b----11b---|
D|----------------------------|
A|----------------------------|
E|----------------------------|

X2
e|--------------------------------|
B|-14--14--14--14--14--14--14--14-|
G|-16b-----16b-----16b-----16b----|
D|--------------------------------|
A|--------------------------------|
E|--------------------------------|


Chorus


Post Chorus
Guitar 2 plays instead
e|--0-0-0-0-0-0-0-0-0-0-0--0-0-0-0-0-0-0--0-0-0-0-0-0-0-0-0-0-0--|
B|--5-5-5-5-4-4-4-4-2-2-2--0-2-0-2-0-0-0--0-2-0-2-0-0-0-1-1-1-1--|
G|---------------------------------------------------------------|
D|---------------------------------------------------------------|
A|---------------------------------------------------------------|
E|---------------------------------------------------------------|



Outro
Guitar 1 plays Post chorus

Guitar 2
e|----------------------------------------------------------------------------------|
B|-----------------------------------------------------12--12-12--12-13--13--13--13-|
G|-----------------------------------------------------14b----14b----15b-----15b----|
D|----------------------------------------------------------------------------------|
A|-------11-9--11--------11-9--------------11-9-------------------------------------|
E|--9-12------------9-12-------12-9---9-12-------12-9-------------------------------|


And that's the way the cookie crumbles

************************************

| /   slide up
| \   slide down
| h   hammer-on
| p   pull-off
| ~   vibrato
| +   harmonic
| x   Mute note
| b   Bend
| pb  Pre-bend
| br  Bend release
| pbr Pre-bend release
| brb Bend release bend

************************************
Related for Arlandria tab
Arlandria chords by Foo Fighters