Guitaretab - guitar tabs
Song name
# A B C D E F G H I J K L M N O P Q R S T U V W X Y Z

Foo Fighters - Stacked Actors tab

Song: Stacked Actors
Artist: Foo Fighters

Intro 
e|------------------------------------------------------------| 
B|------------------------------------------------------------| 
G|o----------------------------------------------------------o| 
D|o----------------------------------------------------------o| 
A|------------------------------------------------------------| 
A|--0--0-3-5-5-3/10-10\35-5-3/8-8-6-6-5-3-0-{4-4}-0-6-6-5-3--| 
 
|------------------------------------------------------------| 
|------------------------------------------------------------| 
|------------------------------------------------------------| 
|------------------------------------------------------------| 
|--0--0-3-5-5-3/10-10\3-5-5-3/8-8-6-6-5-3-0-{4-4}-0-6-6-5-3--| 
|--0--0-3-5-5-3/10-10\3-5-5-3/8-8-6-6-5-3-0-{4-4}-0-6-6-5-3--| 
   
|--------------------------------------------| 
|--------------------------------------------| 
|--------------------------------------------|
|--------------------------------------------| 
|--0--0-3-5-5-3/10-10\3-5-5-3/8-8-6-6-5-3-0--|
|--0--0-3-5-5-3/10-10\3-5-5-3/8-8-6-6-5-3-0--|

Verse 
Guitar 1                                 Guitar 2                   
|--------------|------------------||    |--0~~-------------------------|| 
|----1--1/3\1--|----1-1--4-4-3-1--||    |--1~~-------------------------||
|o---0--0/0\0-o|----0-0--0-0-0-0-o||    |o-0~~------------------------o|| 
|o-2-2--2/4\2-o|--2-2-2--5-5-4-2-o|| X6 |o-2~~------------------------o|| X6
|--0-0--3/5\3--|--0-0-3--6-6-5-3--||    |--0~~-------------------------|| 
|--------------|------------------||    |------------------------------||
             X3
Pre Chorus 
|---------------------------| 
|---------------------------| 
|---------------------------|
|---------------------------| 
|--0----0----0--0-0-0-0-0--| 
|--0----0----0--0--0-0-0-0--| 

Chorus 
|------------------------------------------------------------| 
|------------------------------------------------------------| 
|------------------------------------------------------------| 
|------------------------------------------------------------| 
|--0--0-3-5-5-3/10-10\3-5-5-3/8-8-6-6-5-3-0-{4-4}-0-6-6-5-3--|
|--0--0-3-5-5-3/10-10\3-5-5-3/8-8-6-6-5-3-0-{4-4}-0-6-6-5-3--| 
 
|--------------------------------------------| 
|--------------------------------------------| 
|--------------------------------------------|
|--------------------------------------------| 
|--0--0-3-5-5-3/10-10\3-5-5-3/8-8-6-6-5-3-0--|
|--0--0-3-5-5-3/10-10\3-5-5-3/8-8-6-6-5-3-0--|
[ Tab from: http://www.guitaretab.com/f/foo-fighters/27725.html ]
Verse 
Guitar 1                                 Guitar 2                  
|--------------|------------------||    |--0~~-------------------------|| 
|----1--1/3\1--|----1-1--4-4-3-1--||    |--1~~-------------------------||
|o---0--0/0\0-o|----0-0--0-0-0-0-o||    |o-0~~------------------------o|| 
|o-2-2--2/4\2-o|--2-2-2--5-5-4-2-o|| X6 |o-2~~------------------------o|| X6
|--0-0--3/5\3--|--0-0-3--6-6-5-3--||    |--0~~-------------------------|| 
|--------------|------------------||    |------------------------------||
             X3
Pre Chorus 
|---------------------------| 
|---------------------------| 
|---------------------------|
|---------------------------| 
|--0----0----0--0-0-0-0-0--| 
|--0----0----0--0--0-0-0-0--| 

Chorus 
|------------------------------------------------------------|
|------------------------------------------------------------|
|o----------------------------------------------------------o|
|o----------------------------------------------------------o| X4
|--0--0-3-5-5-3/10-10\3-5-5-3/8-8-6-6-5-3-0-{4-4}-0-6-6-5-3--|
|--0--0-3-5-5-3/10-10\3-5-5-3/8-8-6-6-5-3-0-{4-4}-0-6-6-5-3--|
                                                                        
|--------------|-----------|
|--------------|-----------|
|o------------o|o---------o|
|o------------o|o---------o|
|--0--3-5-5-3--|--6-6-5-3--| 
|--0--3-5-5-3--|--6-6-5-3--| 
                         X3  
Solo	                                                    
|---------------------------------------------------------------| 
|---------------------------------------------------------------| 
|---------------------------------------------------------------| 
|-------------------------------------10-12-10-------10----12b--| 
|--10b-10b-10b-10b-10p9h10-10b-10b-12----------12-12----12------| 
|---------------------------------------------------------------|

|-------------------------------------------------------------------| 
|-------------------------------------------------------------------| 
|-------------------------------------------------------------------| 
|-------------------------------------------------------------------| 
|--12b-12b-12b-12b-12b-12b-12b-12b-12b-12b-12b-12b-12b-12b-12b-12b--| 
|-------------------------------------------------------------------| 

|-------------------|--------------------| 
|-------------------|--------------------| 
|o-----------------o|o------------------o| 
|o-----------------o|o------------------o| 
|--12-10-10-9-9-7b--|--12-10-10-9-9-14b--| 
|-------------------|--------------------| 

|--------------------------------------------------|
|--------------------------------------------------|
|--------------------------------------------------|
|--------------------------------------------------|
|--12-10-10-9-9-7-12-10-10-9-9-14-10b-10b-10b-10b--|
|--------------------------------------------------|

Chorus 
|------------------------------------------------------------| 
|------------------------------------------------------------| 
|o----------------------------------------------------------o| 
|o----------------------------------------------------------o| X4
|--0--0-3-5-5-3/10-10\3-5-5-3/8-8-6-6-5-3-0-{4-4}-0-6-6-5-3--| 
|--0--0-3-5-5-3/10-10\3-5-5-3/8-8-6-6-5-3-0-{4-4}-0-6-6-5-3--|

Outro 
Guitar 1                                 Guitar 2                   
|--------------|------------------||    |--0~~-------------------------|| 
|----1--1/3\1--|----1-1--4-4-3-1--||    |--1~~-------------------------||
|o---0--0/0\0-o|----0-0--0-0-0-0-o||    |o-0~~------------------------o|| 
|o-2-2--2/4\2-o|--2-2-2--5-5-4-2-o|| X3 |o-2~~------------------------o|| X3
|--0-0--3/5\3--|--0-0-3--6-6-5-3--||    |--0~~-------------------------|| 
|--------------|------------------||    |------------------------------||
             X3

Legend
|o  o|Repeat
|o  o|
(4-4)Harmonics
Related for Stacked Actors tab