Foo Fighters - Walk tab

Walk by the Foo Fighters. Fantasic song from the fantastic new album. Hope this tab is
ok. Roll on Milton Keyenes! Listen to the song for rhythm at parts and also listen for
the changes. It was hard to explain so I hope you are able to figure it out. Being 
talented guitarists I am sure you will. I know I haven't layed out the structure completely
right, but should be fine to follow.

Intro: Play for 25 seconds. (Palm Mute)
(Verse 1:)

e:---
B:---
G:-7- x112
D:-7-
A:-0-
E:---

1st bar
e:-----------------------------------------------------------------|
B:-----------------------------------------------------------------|
G:-----------------------------------------------------------------|
D:-7-7-7-7-7-7-7-7-7-7-7-7-7-7-7-7-9-9-9-9-9-9-9-9-9-9-9-9-9-9-9-9-|
A:-7-7-7-7-7-7-7-7-7-7-7-7-7-7-7-7-9-9-9-9-9-9-9-9-9-9-9-9-9-9-9-9-|
E:-0-0-0-0-0-0-0-0-0-0-0-0-0-0-0-0-7-7-7-7-7-7-7-7-7-7-7-7-7-7-7-7-|

2nd bar
e:-----------------------------------------------------------------|
B:-----------------------------------------------------------------|
G:-7-7-7-7-7-7-7-7-7-7-7-7-7-7-7-7---------------------------------|
D:-7-7-7-7-7-7-7-7-7-7-7-7-7-7-7-7-7-7-7-7-7-7-7-7-7-7-7-7-7-7-7-7-|
A:-5-5-5-5-5-5-5-5-5-5-5-5-5-5-5-5-7-7-7-7-7-7-7-7-7-7-7-7-7-7-7-7-|
E:---------------------------------5-5-5-5-5-5-5-5-5-5-5-5-5-5-5-5-|

3rd bar
e:-----------------------------------------------------------------|
B:-----------------------------------------------------------------|
G:-9-9-9-9-9-9-9-9-9-9-9-9-9-9-9-9---------------------------------|
D:-9-9-9-9-9-9-9-9-9-9-9-9-9-9-9-9-9-9-9-9-9-9-9-9-9-9-9-9-9-9-9-9-|
A:-7-7-7-7-7-7-7-7-7-7-7-7-7-7-7-7-9-9-9-9-9-9-9-9-9-9-9-9-9-9-9-9-|
E:---------------------------------7-7-7-7-7-7-7-7-7-7-7-7-7-7-7-7-|

Repeat 2nd and 3rd Bar. Then:

e:---------------------------------|
B:---------------------------------|
G:-7-7-7-7-7-7-7-7-7-7-7-7-7-7-7-7-|
D:-7-7-7-7-7-7-7-7-7-7-7-7-7-7-7-7-|
A:-5-5-5-5-5-5-5-5-5-5-5-5-5-5-5-5-|
E:---------------------------------|

Heavy Distortion

e:---
B:---
G:---
D:-7- x34
A:-7-
E:-5-

e:-----------------------------------------------------------------|
B:-----------------------------------------------------------------|
G:----------------999-999-999-999-----------------777-777-777-7777-|
D:-77-777-777-777-999-999-999-999-999-999-999-999-777-777-777-7777-|
A:-77-777-777-777-777-777-777-777-999-999-999-999-555-555-555-5555-|
E:-55-555-555-555-----------------777-777-777-777------------------|

e:--------------------------------------------------|
B:--------------------------------------------------|
G:-----------------999-999-999-999------------------|
D:-777-777-777-777-999-999-999-999-999-999-999-999--|
A:-777-777-777-777-777-777-777-777-999-999-999-999--|
E:-555-555-555-555-----------------777-777-777-777--|

e:-----------------------------|
B:-----------------------------|
G:-7777-9999-10101010-12121212-|
D:-7777-9999-10101010-12121212-|
A:-5555-7777-8 8 8 8--10101010-|
E:-----------------------------|

Chorus

e:-----------------------------------------------------------------|
B:-----------------------------------------------------------------|
G:---------------------------------1-1-1-1-1-1-1-1-1-1-1-1-1-1-1-1-|
D:-7-7-7-7-7-7-7-7-7-7-7-7-7-7-7-7-2-2-2-2-2-2-2-2-2-2-2-2-2-2-2-2-|
A:-7-7-7-7-7-7-7-7-7-7-7-7-7-7-7-7-2-2-2-2-2-2-2-2-2-2-2-2-2-2-2-2-|
E:-5-5-5-5-5-5-5-5-5-5-5-5-5-5-5-5-0-0-0-0-0-0-0-0-0-0-0-0-0-0-0-0-|

e:---------------------------------|
B:---------------------------------|
G:-4-4-4-4-4-4-4-4-4-4-4-4-4-4-4-4-|
D:-4-4-4-4-4-4-4-4-4-4-4-4-4-4-4-4-|
A:-2-2-2-2-2-2-2-2-2-2-2-2-2-2-2-2-|
E:---------------------------------|

e:-------------------------|
B:-------------------------|
G:-7777-9999-10101010-7777-|
D:-7777-9999-10101010-7777-|
A:-5555-7777-8 8 8 8--5555-|
E:-------------------------|

e:-----------------------------------------------------------------|
B:-----------------------------------------------------------------|
G:---------------------------------1-1-1-1-1-1-1-1-1-1-1-1-1-1-1-1-|
D:-7-7-7-7-7-7-7-7-7-7-7-7-7-7-7-7-2-2-2-2-2-2-2-2-2-2-2-2-2-2-2-2-|
A:-7-7-7-7-7-7-7-7-7-7-7-7-7-7-7-7-2-2-2-2-2-2-2-2-2-2-2-2-2-2-2-2-|
E:-5-5-5-5-5-5-5-5-5-5-5-5-5-5-5-5-0-0-0-0-0-0-0-0-0-0-0-0-0-0-0-0-|

e:---------------------------------|
B:---------------------------------|
G:-4-4-4-4-4-4-4-4-4-4-4-4-4-4-4-4-|
D:-4-4-4-4-4-4-4-4-4-4-4-4-4-4-4-4-|
A:-2-2-2-2-2-2-2-2-2-2-2-2-2-2-2-2-|
E:---------------------------------|

e:-----------------------------|
B:-----------------------------|
G:-7777-9999-10101010-12121212-|
D:-7777-9999-10101010-12121212-|
A:-5555-7777-8 8 8 8--10101010-|
E:-----------------------------|

Middle: "Now! For the very first time..."

e:---        e:---       e:---|
B:---        B:---       B:---|
G:---        G:-1-       G:---|
D:-7-        D:-2-       D:-4-|
A:-7-x32     A:-2-x32    A:-4-|x16
E:-5-        E:-0-       E:-2-|

e:---        e:---       e:---|
B:---        B:---       B:---|
G:-7-        G:---       G:-1-|
D:-7-x16     D:-7-       D:-2-|
A:-5-        A:-7-x32    A:-2-|x32
E:---        E:-5-       E:-0-|

e:---        e:---       e:---|
B:---        B:---       B:---|
G:---        G:-7-       G:---|
D:-4-        D:-7-       D:-7-|
A:-4-x16     A:-5-x16    A:-7-|x32
E:-2-        E:---       E:-5-|

e:---        e:---       e:---|
B:---        B:---       B:---|
G:-1         G:---       G:-7-|
D:-2-        D:-4-       D:-7-|
A:-2-x32     A:-4-x16    A:-5-|x16
E:-0-        E:-2-       E:---|

e:---
B:---
G:---
D:-7~
A:-7~
E:-5~

Chorus

e:-------------------------------------|
B:-------------------------------------|
G:-----1-1-1-1-1-1-1-1-1-1-1-1-1-1-1-1-|
D:-7-7-2-2-2-2-2-2-2-2-2-2-2-2-2-2-2-2-|
A:-7-7-2-2-2-2-2-2-2-2-2-2-2-2-2-2-2-2-|
E:-5-5-0-0-0-0-0-0-0-0-0-0-0-0-0-0-0-0-|

e:---------------------------------|
B:---------------------------------|
G:---------------------------------|
D:-4-4-4-4-4-4-4-4-4-4-4-4-4-4-4-4-|
A:-4-4-4-4-4-4-4-4-4-4-4-4-4-4-4-4-|
E:-2-2-2-2-2-2-2-2-2-2-2-2-2-2-2-2-|

e:-----------------------------|
B:-----------------------------|
G:-7777-9999-10101010-12121212-|
D:-7777-9999-10101010-12121212-|
A:-5555-7777-8 8 8 8--10101010-|
E:-----------------------------|

e:-----------------------------------------------------------------|
B:-----------------------------------------------------------------|
G:---------------------------------1-1-1-1-1-1-1-1-1-1-1-1-1-1-1-1-|
D:-7-7-7-7-7-7-7-7-7-7-7-7-7-7-7-7-2-2-2-2-2-2-2-2-2-2-2-2-2-2-2-2-|
A:-7-7-7-7-7-7-7-7-7-7-7-7-7-7-7-7-2-2-2-2-2-2-2-2-2-2-2-2-2-2-2-2-|
E:-5-5-5-5-5-5-5-5-5-5-5-5-5-5-5-5-0-0-0-0-0-0-0-0-0-0-0-0-0-0-0-0-|

e:---------------------------------|
B:---------------------------------|
G:---------------------------------|
D:-4-4-4-4-4-4-4-4-4-4-4-4-4-4-4-4-|
A:-4-4-4-4-4-4-4-4-4-4-4-4-4-4-4-4-|
E:-2-2-2-2-2-2-2-2-2-2-2-2-2-2-2-2-|

e:-------------------------|
B:-------------------------|
G:-7777-9999-10101010-7777-|
D:-7777-9999-10101010-7777-|
A:-5555-7777-8 8 8 8--5555-|
E:-------------------------|

e:-----------------------------------------------------------------|
B:-----------------------------------------------------------------|
G:---------------------------------1-1-1-1-1-1-1-1-1-1-1-1-1-1-1-1-|
D:-7-7-7-7-7-7-7-7-7-7-7-7-7-7-7-7-2-2-2-2-2-2-2-2-2-2-2-2-2-2-2-2-|
A:-7-7-7-7-7-7-7-7-7-7-7-7-7-7-7-7-2-2-2-2-2-2-2-2-2-2-2-2-2-2-2-2-|
E:-5-5-5-5-5-5-5-5-5-5-5-5-5-5-5-5-0-0-0-0-0-0-0-0-0-0-0-0-0-0-0-0-|

e:---------------------------------|
B:---------------------------------|
G:---------------------------------|
D:-4-4-4-4-4-4-4-4-4-4-4-4-4-4-4-4-|
A:-4-4-4-4-4-4-4-4-4-4-4-4-4-4-4-4-|
E:-2-2-2-2-2-2-2-2-2-2-2-2-2-2-2-2-|

e:-----------------------------|
B:-----------------------------|
G:-7777-9999-10101010-12121212-|
D:-7777-9999-10101010-12121212-|
A:-5555-7777-8 8 8 8--10101010-|
E:-----------------------------|

e:-----------------------------------------------------------------|
B:-----------------------------------------------------------------|
G:---------------------------------1-1-1-1-1-1-1-1-1-1-1-1-1-1-1-1-|
D:-7-7-7-7-7-7-7-7-7-7-7-7-7-7-7-7-2-2-2-2-2-2-2-2-2-2-2-2-2-2-2-2-|
A:-7-7-7-7-7-7-7-7-7-7-7-7-7-7-7-7-2-2-2-2-2-2-2-2-2-2-2-2-2-2-2-2-|
E:-5-5-5-5-5-5-5-5-5-5-5-5-5-5-5-5-0-0-0-0-0-0-0-0-0-0-0-0-0-0-0-0-|

e:---------------------------------|
B:---------------------------------|
G:---------------------------------|
D:-4-4-4-4-4-4-4-4-4-4-4-4-4-4-4-4-|
A:-4-4-4-4-4-4-4-4-4-4-4-4-4-4-4-4-|
E:-2-2-2-2-2-2-2-2-2-2-2-2-2-2-2-2-|

Outro
e:-----------------------------------------------------------------|
B:-----------------------------------------------------------------|
G:-7777-9999-10101010-12121212-14141414-14141414-10101010-12121212-|
D:-7777-9999-10101010-12121212-14141414-14141414-10101010-12121212-|
A:-5555-7777-8 8 8 8--10101010-12121212-10101010-8 8 8 8--10101010-|
E:-----------------------------------------------------------------|

e:----
B:----
G:-14-
D:-14-x32
A:-12-
E:----
Tap to rate this tab
 
# A B C D E F G H I J K L M N O P Q R S T U V W X Y Z