Foo Fighters - Wheels tab

WHEELS - Foo Fighters

Tuning: Standard (EADGBe)

Intro: (Overdrive)
e|------------------------------------------------------|
B|-------------------------10-10------------------------|
G|-------------------------x--x-------------------------| x 2
D|--------7------11-11-11--7--7--7-6-6-6-7-6------------|
A|----7h9---7h9--12-12-12--------------------9-7--------|
E|-10---------------------------------------------------|


Verse: (Clean)
e|------------------------------------------------------|
B|------------------------------------------------------|
G|---------------6-6-6-6--------------------------------| x 8
D|--------7------7-7-7-7-----7-7-6-6--6-7-6-------------|
A|----7h9---7h9-----------9----9-7-7---------7----------|
E|-10-------------------------------------------7--7----|


Pre Chorus: (Overdrive)
   D Maj      A Maj      F# Min     E Maj
e|-5-5-5-x-x--5-5-5-x-x--9--9--x-x--x-x-x-x-x-----------|
B|-7-7-7-x-x--5-5-5-x-x--10-10-x-x--9-9-9-x-x-----------|
G|-7-7-7-x-x--6-6-6-x-x--11-11-x-x--9-9-9-x-x-----------| x 1
D|-7-7-7-x-x--7-7-7-x-x--11-11-x-x--9-9-9-x-x-----------|
A|-5-5-5-x-x--7-7-7-x-x--9--9--x-x--7-7-7-x-x-----------|
E|-------x-x--5-5-5-x-x--------x-x--------x-x-----------|


Chorus: (Distortion)
   D          A          F#m        E
e|-2-2-2-2-2--0-0-0-0-0--2-2-2-2-2--0-0-0-0-0-----------|
B|-3-3-3-3-3--2-2-2-2-2--2-2-2-2-2--0-0-0-0-0-----------|
G|-2-2-2-2-2--2-2-2-2-2--2-2-2-2-2--1-1-1-1-1-----------| x 4
D|-0-0-0-0-0--2-2-2-2-2--4-4-4-4-4--2-2-2-2-2-----------|
A|------------0-0-0-0-0--4-4-4-4-2--2-2-2-2-2-----------|
E|-----------------------2-2-2-4-2--0-0-0-0-0-----------|


(Chorus Riff)
e|---------------|
B|---------------|
G|------2--------|
D|-2h4-----4p2---|
A|---------------|
E|---------------|


Post Chorus: (Distortion)
   D     A  F#m     E
e|-3--3--0--9---9---x-----------------------------------|
B|-2--2--2--10--10--9-----------------------------------|
G|-3--3--2--11--11--9-----------------------------------|
D|-0--0--2--11--11--9-----------------------------------|
A|-------0--9---9---7-----------------------------------|
E|------------------------------------------------------|


Solo: (Distortion)
e|------------------------------------------------------|
B|------------------------------------------------------|
G|------------------------------------------------------| x 2
D|----7--------7--------7--9--6--6--7p6-----------------|
A|-5-----5--7-----7--9------------------9p7-------------|
E|------------------------------------------------------|


e|------------------------------------------------------|
B|------------------------------------------------------|
G|---------------------------9--9-----------------------|
D|-/12--12--12h14--11--9--7--7--7--9--6--6--7p6---------|
A|-----------------------------------------------9p7----|
E|------------------------------------------------------|


e|------------------------------------------------------|
B|------------------------------------------------------|
G|------------------------------------------------------|
D|----7-----------7--9--6--6--7p6-----------------------|
A|-5-----5--7--9-------------------9p7------------------|
E|------------------------------------------------------|


LYRICS:

(Verse 1)
I know what you're thinkin'
We were goin' down
I could feel us sinkin'
But then I came around

(Verse 2)
And everyone I've loved before
Flashed before my eyes
And nothin' mattered anymore
I looked into the sky

(Pre Chorus)
Well I wanted something better man
I wished for something new
And I wanted something beautiful
I wished for something true
Been lookin' for a reason man
Something to lose

(Chorus)
When the wheels come down (When the wheels come down)
When the wheels touch ground (When the wheels touch ground) 
And you feel like it's all over
There's another round for you
When the wheels come down (When the wheels come down)

(Post Chorus)

(Verse 3)
I know your head is spinnin'
Broken hearts will mend
This is our beginning
Comin to an end

(Pre Chorus)
Well, you wanted something better man
You wished for something new
Well, you wanted something beautiful
Wished for something true
Been lookin for a reason man
Something to lose

(Chorus)
When the wheels come down (When the wheels come down)
When the wheels touch ground (When the wheels touch ground)
And you feel like it's all over
There's another round for you
When the wheels come down (When the wheels come down)
Oh!

(Post Chorus x 2)

(Solo)

(Chorus)
When the wheels come down (When the wheels come down)
When the wheels touch ground (When the wheels touch ground)
And you feel like it's all over
There's another round for you

(Chorus Out)
When the wheels come down (When the wheels come down)
When the wheels come down (When the wheels come down)
When the wheels touch ground (When the wheels touch ground)
And you feel like it's all over
There's another round for you
When the wheels come down (When the wheels come down)

************************************

| /   slide up
| h   hammer-on
| p   pull-off
| ~   vibrato
| x   Mute note

After looking at of various tabs of this great song, here is a simple version to share.

Tabbed by: WillKemp
Email: worldofchickens@hotmail.com
Tap to rate this tab
 
# A B C D E F G H I J K L M N O P Q R S T U V W X Y Z