Foo Fighters - My Hero tab

Tabbed By: Jeremy Stock

   Hey guys, I've seen alot of tabs for this song and they aren't close to the real 
deal. So here it goes.

Legend:
x: muted note
b: bend note


 Intro: Play 2x (1st Guitar)
e|--0-0-0-0-----0---0------------|
B|--2-3-2-0---0---0---0----------|
G|-------------------------------|
D|-------------------------------|
A|-------------------------------|
E|-------------------------------|

e|-------------------------------|
B|-----------5-5-5-5-------------|
G|-0-0-0--x--6-6-6-6-------------|
D|-2-2-2--x--6-6-6-6---Repeat----|
A|-2-2-2--x--4-4-4-4-------------|
E|-------------------------------|

This little lick kicks the
song into the verse.
e|-------------------------------|
B|-------------------------------|
G|-------------------------------|
D|-------------------------------|
A|------4-2----------------------|
E|--2-2-----4-5------------------|

 Verse:(Play Until Chorus)
 Dave Grohl messes around with
 The chord on the intro.
e|-------------------------------|
B|-55555555447447444-------------|
G|-------------------------------|
D|-------------------------------|
A|-------------------------------|
E|-------------------------------|

 Chorus:
e|-------------------------------|
B|-------------------------------|
G|--2--888-999-111111------------|
D|--2--xxx-xxx-x-x-x-------------|
A|--0--666-777-9-9-9-------------|
E|-------------------------------|

e|-------------------------------|
B|-------------------------------|
G|--2--888-999-444---------------|
D|--2--xxx-xxx-xxx---------------|
A|--0--666-777-222---------------|
E|-------------------------------|

e|-------------------------------|
B|-------------------------------|
G|--1--888-999-111111------------|
D|--2--xxx-xxx-x-x-x-------------|
A|--2--666-777-9-9-9-------------|
E|-------------------------------|

e|-------------------------------|
B|-------------------------------|
G|--1--111111-121212-888---------|
D|--2--x-x-x--x-x-x--xxx---------|
A|--2--9-9-9--111111-666---------|
E|-------------------------------|

Then you play that little lick again and then
you play the part you play in the verse but
just alittle different.

e|-------------------------------|
B|-55555554447447444-0-----------|
G|-------------------4b----------|
D|-------------------------------|
A|-------------------------------|
E|-------------------------------|

Then you just restart basically.

Hoped this really helped.
Just listen to the song to find out the rythym.
Tap to rate this tab
 
# A B C D E F G H I J K L M N O P Q R S T U V W X Y Z