Foo Fighters - Wheels tab

-----------------------------------------------------------------------------
-----------------------------------------------------------------------------
Foo Fighters- Wheels
Tabbed by Nethos


Standard Tuning EADGBe
h=hammer on
p=pull off

Intro

Guitar 1

-------------------------------------|
-------------------------------------|
-------------------------------------|
------------6-6-6--------------------|   X2
-5-5p7-7h5---------7-7-7-6-6-646-----|
---------------------------------7---|

Guitar 2

------------------------------------------|
--2-2-2-2-x-2-2-2-2-----------------------|
--3-3-3-3-x-2-2-2-2-----------------------|
------------2-2-2-2------4-4-4-x-2-2-2-2--| X2
-------------------------4-4-4-x-2-2-2-2--|
-------------------------2-2-2-x-0-0-0-0--|
Verse Riff

Guitar 1

---------------------------------------------|
---------------------------------------------|
------------------------2---------1h2p1------|
------------6-6-6----4------4---2-------2----| X4
-5-5p7-7h5-----------4--------2--------------|
---------------------------------------------|

Guitar 2

------------------------------------------|
--2-2-2-2-x-2-2-2-2-----------------------|
--3-3-3-3-x-2-2-2-2-----------------------|
------------2-2-2-2------4-4-4-x-2-2-2-2--| X4
-------------------------4-4-4-x-2-2-2-2--|
-------------------------2-2-2-x-0-0-0-0--|

Pre Chorus

---5-5-x-x-5-5-5-x-x-5-5-5-x-x-4-4-4-4-4-4-----|
---5-5-x-x-5-5-5-x-x-5-5-5-x-x-5-5-5-5-5-5-----|
---2-2-x-2-2-2-2-x-2-2-2-2-x-x-4-4-4-4-4-4-----|
-----------------------------------------------| X4
-----------------------------------------------|
-----------------------------------------------|

Chorus

-----------------------------------------------|
-----------2-2-2-x-x---------1-1-1-------------|
---7-7-x-x-2-2-2-x-x-4-4-4-x-2-2-2-------------|
---7-7-x-x-2-2-2-x-x-4-4-4-x-2-2-2-------------| X4
---5-5-x-x-----------2-2-2-x-------------------|
-----------------------------------------------|

Bridge

-----------------------|
--3-3--2--2-2--1-------|
--2-2--2--4-4--2-------|
-------2--4-4--2-------|
-----------------------|
-----------------------|

Solo (Guitar 2 go on with the verse)

------------------|
------------------|
------------------|
------------------|
------------------|
----12\5----------|


---------------------------------------------|
-----10-----10------10-10h12-9-9-10-9--------|
---7----7-9----9-11-------------------11-9---|
---------------------------------------------| x2
---------------------------------------------|
---------------------------------------------|

---10-10-10h12-9-9-------------------------------|
-------------------10-10-10-10h12-9-9-10-9-------|
-------------------------------------------11-9--|
-------------------------------------------------|
-------------------------------------------------|
-------------------------------------------------|

---------------------------------------------|
-----10-----10------10-10h12-9-9-10-9--------|
---7----7-9----9-11-------------------11-9---|
---------------------------------------------|
---------------------------------------------|
---------------------------------------------|

Progression

Intro
Verse
Verse
Pre chorus
Chorus
Bridge
Verse
Pre chorus
Bridge
Bridge
Solo
Chorus
Solo
Bridge (fade out with last chord of the bridge)
Tap to rate this tab
 
# A B C D E F G H I J K L M N O P Q R S T U V W X Y Z