Song name
# A B C D E F G H I J K L M N O P Q R S T U V W X Y Z

Foo Fighters - Rope tab

CHRIS SHIFLETT (LEAD GUITAR)

(RIFF PLAYED MAINLY THROUGHOUT SONG)

e0-0-0-0-0-0----0--0--0--0--0-0---0-0-0-0-0-0---0-0-0-0-0-0----
B5-5-5-5-0-5----9--9--9--9--0-9---6-6-6-6-6-6---6-6-6-6-6-6----
G7-7-7-7-7-7---11-11-11-11-11-11--8-8-8-8-0-8---8-8-8-8-0-8----
D7-7-7-7-7-7---11-11-11-11-11-11--8-8-8-8-8-8---8-8-8-8-8-8---- 
A------------------------------------------------------------0~
E--------------------------------------------------------------


e0-0-0-0-0-0----0--0--0--0--0-0---0-0-0-0-0-0---0-0-0-0-0-0-------------
B5-5-5-5-0-5----9--9--9--9--0-9---6-6-6-6-6-6---6-6-6-6-6-6-------------
G7-7-7-7-7-7---11-11-11-11-11-11--8-8-8-8-0-8---8-8-8-8-0-8-------------
D7-7-7-7-7-7---11-11-11-11-11-11--8-8-8-8-8-8---8-8-8-8-8-8------------- 
A------------------------------------------------------------------7-5--
E------------------------------------------------------------7-5-5-----5*

(CHORUS)
"GIVE ME SOME ROPE..."
e-3-3-3-3-3-3-3-3-0-0-0-0-0-0-0-0-2-2-2-2-2-2-2-2-0-0-0-0-0-0-0-0
B-3-3-3-3-3-3-3-3-0-0-0-0-0-0-0-0-2-2-2-2-2-2-2-2-0-0-0-0-0-0-0-0
G-3-3-3-3-3-3-3-3-0-0-0-0-0-0-0-0-4-4-4-4-4-4-4-4-2-2-2-2-2-2-2-2
D-5-5-5-5-5-5-5-5-2-2-2-2-2-2-2-2-4-4-4-4-4-4-4-4-2-2-2-2-2-2-2-2 X3
A-5-5-5-5-5-5-5-5-2-2-2-2-2-2-2-2-2-2-2-2-2-2-2-2-0-0-0-0-0-0-0-0
E-3-3-3-3-3-3-3-3-0-0-0-0-0-0-0-0-2-2-2-2-2-2-2-2-0-0-0-0-0-0-0-0

"GO...          I...       COME...     LOOSE..."
e-3-3-3-3-3-3-4-4-4-4-4-4-5-5-5-5-5-5-6-6-6-6-6-6
B-3-3-3-3-3-3-4-4-4-4-4-4-5-5-5-5-5-5-6-6-6-6-6-6
G-3-3-3-3-3-3-4-4-4-4-4-4-5-5-5-5-5-5-6-6-6-6-6-6
D-5-5-5-5-5-5-4-4-4-4-4-4-5-5-5-5-5-5-6-6-6-6-6-6
A-5-5-5-5-5-5-7-7-7-7-7-7-7-7-7-7-7-7-8-8-8-8-8-8
E-3-3-3-3-3-3-4-4-4-4-4-4-5-5-5-5-5-5-6-6-6-6-6-6

(BRIDGE)

e----------
B----------
G-------7-9
D-9-7-9-7-9 X3 THEN ....
A-9-7-9-5-7
E-7-5-7-5-7

e-----------X-X-X-X----------
B-----------X-X-X-X----------
G-------7-9-X-X-X-X----------
D-9-7-9-7-9-X-X-X-X-5-5-7-2-2 X2
A-9-7-9-5-7-X-X-X-X-5-5-7-2-2
E-7-5-7-5-7-X-X-X-X-3-3-5-0-0

(SOLO)

e|--------------------------------------------------------------------------|
B|-9b10-10p7h10p7---10p7h10p7---10p7h10p7---10h12p10h12p10------------------|
G|---------------9p7---------9p7---------9p7--------------11p9h11p9---------|
D|-----------------------------------------------------------------12p9h12--|
A|--------------------------------------------------------------------------|
E|--------------------------------------------------------------------------|

e|--------------------------------------------------------------------------|
B|--------------------------------------------------------------------------|
G|--------------------------------------------------------------------------|
D|-p9\7/9h12p9--------------------------------------------------------------|
A|------------12p9h12p9\7h9p7\5h7p5-----------------------------------------|
E|---------------------------------7~-tp------------------------------------|

e|----------------------------------------------------------12----tp--------|
B|----------------------------15b17r15p12h15p12h15b17~------15b17-tp--------|
G|-12b13r12p9h12p9-7~-9~----------------------------------------------------|
D|--------------------------------------------------------------------------|
A|--------------------------------------------------------------------------|
E|--------------------------------------------------------------------------|

Tap to rate this tab
 
# A B C D E F G H I J K L M N O P Q R S T U V W X Y Z