Song name
# A B C D E F G H I J K L M N O P Q R S T U V W X Y Z

Foo Fighters - Touch tab

Intro/Verse Rhythm chords: Amaj7   A7   Dmaj7   Dm   Gm
Chorus Rhythm Chords: Bm7 E


e||---0---|---2---|---5---|---5---|---3---||
B||---2---|---2---|---7---|---6---|---3---||
G||---1---|---0---|---6---|---7---|---3---||
D||---2---|---2---|---7---|---7---|---5---||
A||---0---|---0---|---5---|---5---|---5---||
E||-------|-------|-------|-------|---3---||

the Dm and Gm each go for a half measure



Lead guitar
e||--------12--------12--||
B||-----14--------14-----||  x2 (1st measure)
G||--13--------13--------||
D||----------------------||
A||----------------------||
E||----------------------||


e||--------14--------14--||
B||-----14--------14-----||  x2 (2nd measure)
G||--12--------12--------||
D||----------------------||
A||----------------------||
E||----------------------||

e||--------17--------17--||
B||-----19--------19-----||  x2 (3rd measure)
G||--18--------18--------||
D||----------------------||
A||----------------------||
E||----------------------||

e||--------17--------17----15----------||
B||-----15--------15----------15-------||   (4th measure)
G||--15--------15----------------15----||   the last 3 notes are a bit tricky to hear
D||------------------------------------||
A||------------------------------------||
E||------------------------------------||


Chorus Rhythm (Bm7 to E)
e||---2---|---0---||
B||---3---|---0---||
G||---2---|---1---||
D||---4---|---2---||
A||---2---|---2---||
E||-------|---0---||


Chorus Lead
e||--------12--------12--||
B||-----14--------14-----||
G||--14--------14--------||
D||----------------------||
A||----------------------||
E||----------------------||

e||--------12--------12--||
B||-----12--------12-----||  x2 (1st measure)
G||--13--------13--------||
D||----------------------||
A||----------------------||
E||----------------------||

Lead guitar

repeat verse once
repeat chorus twice

Bridge Rhythm - with picking pattern (too lazy for that)

e||---0---|---2---|---5---|---5---|---3---||
B||---2---|---2---|---7---|---6---|---3---||
G||---1---|---0---|---6---|---7---|---3---||
D||---2---|---2---|---7---|---7---|---5---|| x1
A||---0---|---0---|---5---|---5---|---5---||
E||-------|-------|-------|-------|---3---||

e||---2---|---0---||
B||---3---|---0---||
G||---2---|---1---||
D||---4---|---2---|| x2
A||---2---|---2---||
E||-------|---0---||


BRIDGE LEAD
e||--------12--------12--||
B||-----14--------14-----||  x2
G||--13--------13--------||
D||----------------------||
A||----------------------||
E||----------------------||

e||--------14--------14--||
B||-----14--------14-----||  x2
G||--12--------12--------||
D||----------------------||
A||----------------------||
E||----------------------||

e||--------17--------17--||
B||-----19--------19-----||  x2
G||--18--------18--------||
D||----------------------||
A||----------------------||
E||----------------------||

e||--------17--------17----15----------||
B||-----15--------15----------15-------||   x1
G||--15--------15----------------15----||
D||------------------------------------||
A||------------------------------------||
E||------------------------------------||

e||--------12--------12--||
B||-----14--------14-----||
G||--14--------14--------||
D||----------------------|| x1
A||----------------------||
E||----------------------||

e||--------12--------12--||
B||-----12--------12-----||  x1
G||--13--------13--------||
D||----------------------||
A||----------------------||
E||----------------------||

e||--------12--------12--||
B||-----14--------14-----||
G||--14--------14--------||
D||----------------------|| x1
A||----------------------||
E||----------------------||

e||--------12--------12--||
B||-----12--------12-----||  x1
G||--13--------13--------||
D||----------------------||
A||----------------------||
E||----------------------||


Solo Rhythm - Play intro/verse x1 then chorus x2

solo lead - another day.

Repeat verse x1
Repeat chorus x2


End on
e||---0---||
B||---2---||
G||---1---||
D||---2---||
A||---0---||
E||-------||
Tap to rate this tab
 
# A B C D E F G H I J K L M N O P Q R S T U V W X Y Z