Song name
# A B C D E F G H I J K L M N O P Q R S T U V W X Y Z

Foo Fighters - All My Life tab

OK, So basically  x=muted note
|-----------------------------------------------------------------------|
|-----------------------------------------------------------------------|
|------------------------------5-5-5----------------------------6-6-6---|
|-----------------------------3-3-3-----------------------------4-4-4---|
|-x(5)-5-5-x(5)-5-5-x(5)-5-5-------x(5)-5-5-x(5)-5-5-x(5)-5-5-----------|
|-x(3)-3-3-x(3)-3-3-x(3)-3-3-------x(3)-3-3-x(3)-3-3-x(3)-3-3-----------|

|-----------------------------------------------------------------------|
|-----------------------------------------------------------------------|
|------------------------------5-5-5----------------------------6-6-6---|
|-----------------------------3-3-3-----------------------------4-4-4---|
|-x(5)-5-5-x(5)-5-5-x(5)-5-5-------x(5)-5-5-x(5)-5-5-x(5)-5-5-----------|
|-x(3)-3-3-x(3)-3-3-x(3)-3-3-------x(3)-3-3-x(3)-3-3-x(3)-3-3-----------|

|-----------------------------------------------------------------------|
|-----------------------------------------------------------------------|
|------------------------------5-5-5----------------------------6-6-6---|
|-----------------------------3-3-3-----------------------------4-4-4---|
|-x(5)-5-5-x(5)-5-5-x(5)-5-5-------x(5)-5-5-x(5)-5-5-x(5)-5-5-----------|
|-x(3)-3-3-x(3)-3-3-x(3)-3-3-------x(3)-3-3-x(3)-3-3-x(3)-3-3-----------|
Tap to rate this tab
# A B C D E F G H I J K L M N O P Q R S T U V W X Y Z