Song name
# A B C D E F G H I J K L M N O P Q R S T U V W X Y Z

Foo Fighters - Ill Stick Around tab

================================================================
                  I'll Stick Around - Foo Fighters
================================================================
                    As recorded by the Foo Fighters
                (From the 1995 Album 'Foo Fighters')

Words and Music by the Foo Fighters


Tuning: (E A D G B e) - "Standard Tuning"


I created this tab because although the other tabs contain all of
the basic parts of the song, no tab has the correct verse, prechorus
and bridge chords which Dave plays. Have fun, and please rate and
comment! :)




Intro/Chorus 

Play this 3x:                       Then this 1x:

Riff 1                              Riff 2
e|--------------------------|       e|-------------------------|
B|--------------------------|       B|-------------------------|
G|----------8--8---------10-|       G|---------8--8------------|
D|-5--5--x--8--8--8--10--10-|       D|-5--5-x--8--8--8--10--8--|
A|-5--5--x--6--6--8--10--8--|       A|-5--5-x--6--6--8--10--8--|
E|-3--3--x--------6--8------|       E|-3--3-x--------6--8---6--|



Verse:

e|------------|-------------|-------------|-------------|
B|------8-----|------6------|------5------|------8------|
G|------0-8x--|------0--8x--|------0--8x--|------0--8x--|
D|------9-----|------7------|------7------|------9------|
A|-----10-----|------8------|------7------|-----10------|
E|------------|-------------|-------------|-------------|


e|-------------|-------------|---------------------------|-----10------|
B|------6------|------5------|---8--8-10--8-10--8--8-10--|------8------|
G|------0--8x--|------0--8x--|---0--0--0--0--0--0--0--0--|------0--8x--|
D|------8------|------7------|---9--9--9--9--9--9--9--9--|------9------|
A|------8------|------7------|--10-10-10-10-10-10-10-10--|-----10------|
E|-------------|-------------|---------------------------|-------------|



Pre-chorus 1:

e|----------------------------------------------------------------|
B|-----3--3-3-3------3-3-3-3-3-3-3---3----------------------------|
G|-----0--0-0-0------0-0-0-0-0-0-0---3----------------------------|
D|-3---3--3-3-3------x-x-x-x-x-x-x---2----------------------------|
A|-1---1--1-1-1--2---2-2-2-2-2-2-2---3----------------------------|
E|---------------3---3-3-3-3-3-3-3--------------------------------|



e|----------------------------------------------------------------|
B|-3---3--3-3-3--3---3-3-3-3-3-3-3---3---3-3-3-3-3-3-3-3-3-3-3-3--|
G|-0---0--0-0-0--0---0-0-0-0-0-0-0---3---3-3-3-3-3-3-3-3-3-3-3-3--|
D|-3---3--3-3-3--x---x-x-x-x-x-x-x---2---2-2-2-2-2-2-2-2-2-2-2-2--|
A|-1---1--1-1-1--2---2-2-2-2-2-2-2---3---3-3-3-3-3-3-3-3-3-3-3-3--|
E|---------------3---3-3-3-3-3-3-3--------------------------------|




Pre-chorus 2:

e|----------------------------------------0-----0------0----------|
B|-----3--3-3-3------3-3-3-3-3-3-3---3------3-3---3-3----3-3-3----|
G|-----0--0-0-0------0-0-0-0-0-0-0---3----------------------------|
D|-3---3--3-3-3------x-x-x-x-x-x-x---2----------------------------|
A|-1---1--1-1-1--2---2-2-2-2-2-2-2---3----------------------------|
E|---------------3---3-3-3-3-3-3-3--------------------------------|



e|---------------------------------------------------------------|
B|-3---3--3-3-3--3---3-3-3-3-3-3-3---3--3-3-3-3-3-3-3-3-3-3-3-3--|
G|-0---0--0-0-0--0---0-0-0-0-0-0-0---3--3-3-3-3-3-3-3-3-3-3-3-3--|
D|-3---3--3-3-3--x---x-x-x-x-x-x-x---2--2-2-2-2-2-2-2-2-2-2-2-2--|
A|-1---1--1-1-1--2---2-2-2-2-2-2-2---3--3-3-3-3-3-3-3-3-3-3-3-3--|
E|---------------3---3-3-3-3-3-3-3-------------------------------|
                                   [...PM then slowly release...]



Bridge:

e|-----------------------------------3-3-3-3-3-3-3-3--2-2-2-0-0-2-2-2--|
B|-4-4-4-4-4-4-4-4--4-4-4-4-4-4-4-4--0-0-0-0-0-0-0-0--3-3-3-3-3-3-3-3--|
G|-3-3-3-3-3-3-3-3--2-2-2-2-2-2-2-2--0-0-0-0-0-0-0-0--2-2-2-2-2-2-2-2--|
D|-1-1-1-1-1-1-1-1--x-x-x-x-x-x-x-x--0-0-0-0-0-0-0-0--0-0-0-0-0-0-0-0--|
A|-1-1-1-1-1-1-1-1--3-3-3-3-3-3-3-3--2-2-2-2-2-2-2-2--0-0-0-0-0-0-0-0--|
E|------------------1-1-1-1-1-1-1-1--3-3-3-3-3-3-3-3-------------------|


Order: 


Riff 1........(3x)
Riff 2........(1x)
Riff 1........(3x)
Riff 2........(1x)
Verse.........(2x)
Riff 1........(3x)
Riff 2........(1x)
Verse.........(2x)
Pre-Chorus 1..(1x)
Riff 1........(3x)
Riff 2........(1x)
Verse.........(2x)
Pre-Chorus 2..(1x)
Riff 1........(3x)
Riff 2........(1x)
Riff 1........(3x)
Riff 2........(1x)
Bridge........(5 1/2x)
Riff 1........(3x)
Riff 2........(1x)
Riff 1........(3x)
Riff 2........(1x)
Tap to rate this tab
# A B C D E F G H I J K L M N O P Q R S T U V W X Y Z