Song name
# A B C D E F G H I J K L M N O P Q R S T U V W X Y Z

Foo Fighters - Weenie Beenie tab

Tuning:CGDABe


Intro/Verse
e||------------------|-------------------------|--------------------------||
B||------------------|-------------------------|--------------------------||
G||------------------|-10-11-11-11-10-11-11-11-|-10-11-11-11-10-11-11-10--||
D||--8--8--8--101010-|-------------------------|--------------------------||
G||--10-10-10-0-0-0--|-------------------------|--------------------------||
C||--10-10-10-0-0-0--|-------------------------|--------------------------||

Chorus
e||----------------||
B||----------------||
G||----------------||
D||--8---8--8---6--||
G||--10-10-10-8----||
C||--10-10-10-8----||


Bridge
e||-----------------------------------||
B||-----------------------------------||
G||-----------------------------------||
D||--------5---------------3----------||
G||--5-6-7-5-7-6-5-0-3-5-3-3-5-4-3-0--||
C||--5-6-7---7-6-5-0-3-5---3-5-4-3-0--||


Intro/Verse
e||-------------------------|------------------|-------------------||
B||-------------------------|-5-6-6-6--5-6-6-6-|-5-6-6-6--5-6-6-5--||
G||--3---3---3---5----5---5-|------------------|-------------------||
D||--3---3---3---5----5---5-|------------------|-------------------||
A||--1---1---1---3----3---3-|------------------|-------------------||
E||--------------3----3---3-|------------------|-------------------||


Chorus
e||------------------------------------------------||
B||------------------------------------------------||
G||------------------------------------------------||
D||--6--6--6--6---6--6--6--6---6--6--6--6---8---8--||
A||--6--6--6--6---6--6--6--6---6--6--6--6---8---8--||
E||--4--4--4--4---4--4--4--4---4--4--4--4---6---6--||


Bridge
e||--------------------------------|---------------------------||
B||--------------------------------|---------------------------||
G||--------------------------------|---------------------------||
D||--------------3-----------------|---------1-----------------||
A||--------------3-----------------|---------1-----------------||
E||--1---2---3-------3---2---1---0-|-1---2----------3---2---1--||
Tap to rate this tab
# A B C D E F G H I J K L M N O P Q R S T U V W X Y Z