Song name
# A B C D E F G H I J K L M N O P Q R S T U V W X Y Z

Foo Fighters - Cold Day In The Sun tab

a correct version of the solo. other tabs have everything right but this. enjoy!


e||---------------------------------------------------||
B||---------------------------------------------------||
G||------------------------------------------0---0----||
D||------5-5~-7bp5---5~--7-5-7s9-7-5---5-5-4---2---0--||
A||--5s7-----------7-----------------7----------------||
E||---------------------------------------------------||

e||------------------------------------------------------||
B||------------------------------------------------------||
G||------7---9-7---7~----9b-9-7-9-7--5-7-5-4-5-4-0-------||
D||--7/9---9-----9---------------------------------------||
A||-------------------10---------------------------------||
E||------------------------------------------------------||
Tap to rate this tab
 
# A B C D E F G H I J K L M N O P Q R S T U V W X Y Z