Song name
# A B C D E F G H I J K L M N O P Q R S T U V W X Y Z

Foo Fighters - M I A tab

Call and I'll answer at home in the lost and found.

E-----------------------
B--2--3--3---2--3--3----
G--2--2--2---2--2--2----
D-----------------------
A-----------------------
E-----------------------

Say that im much too proud, someone is takin pleasure in breaking down

E-----------------------
B--2--3--3---2--3--3----
G--2--2--2---2--2--2----
D-----------------------
A-----------------------
E-----------------------


CHORUS:

    D Maj   Bb Maj    A Maj
E-----------------------
B----7-7------7-------6-
G----7-7------8-------7-
D----7-7------8-------7-
A----5-5------6-------5-
E-----------------------

This is the whole song, if you have any questions email me at lazyhaze69@hotmail.com
Tap to rate this tab
# A B C D E F G H I J K L M N O P Q R S T U V W X Y Z