Song name
# A B C D E F G H I J K L M N O P Q R S T U V W X Y Z

Foo Fighters - Wheels tab

Foo Fighters - Wheels 
Instrument: Guitar
Tuning: eBGDAE
Tabbed by: MyLittleIbanez


Chords, all the way trough.
e||--3---3---3---2-||
B||--3---3---3---3-||
G||--0---0---0---2-||
D||--2---0---0---0-||
A||--3---2---2-----||
E||--x---3---0-----||


Chorus
e||--3---3---3---2-||
B||--3---3---3---3-||
G||--0---0---0---2-||
D||--2---0---0---0-||
A||--3---2---2-----||
E||--x---3---0-----||


Solo
e||---------------------------------||
B||--8-8-8--8-8-8-8--8-8--10--7---8-||
G||--5-5-5--7-7-7-7--9-9--9---7-----|| 2x
D||---------------------------------||
A||---------------------------------||
E||---------------------------------||     


End
e||--3-3--3---3-3--2-||
B||--3-3--3---3-3--3-||
G||--0-0--0---0-0--2-||
D||--2-2--0---0-0--0-||
A||--3-3--2---2-2----||
E||--x-x--3---0-0----||

------------------------------------------------------------------------------------------
Foo Fighters - Wheels (3rd version)
Instrument: Guitar
Tuning: eBGDAE
Tabbed by: _EnriC_

Intro

e||-----------------------------------------------|
B||-----------------------------------------------| 
G||------------6-6-6-6--[7]-----------------------| x2
D||------7-----7-7-7-7------7-7-76-6-6-7-6-4------|
A||-5-7/9--9-7-------------------------------7----|
E||-------------------------------------------7---|


Verse

Chris:
e||-----------------------------------------------|
B||-----------------------------------------------| 
G||------------6-6-6-6----------------------------| 
D||------7-----7-7-7-7--4-4-7-7-4---46-7-6-4------|
A||-5-7/9--9-7--------------------7----------7----|
E||-------------------------------------------7---|

Dave:
e||--------------|
B||--3-----------|
G||--2--2-----1--|
D||--0--2--4--2--|
A||-----0--4--2--|
E||--------2-----|


Chorus

e||--------------|
B||--3-----------|
G||--2--2-----1--|
D||--0--2--4--2--|
A||-----0--4--2--|
E||--------2-----|

e||--------------|
B||--------------|
G||-------2------|
D||---2-4---4-2--|
A||--------------|
E||--------------|


Solo

e||------------------------------------|
B||------------------------------------|
G||--------------(7)-------------------|
D||---7------7------7-7h9p6--6-7-6-----|
A||-5---5-7----7-9-----------------9-7-|
E||------------------------------------| x2

e||--------------------------------------|
B||--------------------------------------|
G||-7--7-7-7h9-6----(7)------------------|
D||--------------9-7---7-7h9-6-6-7-6-4---|
A||------------------------------------7-|
E||--------------------------------------|

e||------------------------------------|
B||------------------------------------|
G||--------------(7)-------------------|
D||---7------7------7-7h9p6--6-7-6-----|
A||-5---5-7----7-9-----------------9-7-|
E||------------------------------------|

Solo’s Octave

e||----5-----5-----5-5h7p4—4-5-4--------|
B||--3---3-5---5-7---------------7-5----|
G||-------------------------------------|
D||-------------------------------------|
A||-------------------------------------|  x2
E||-------------------------------------|

e||---10-10-10h12-9---------------------------------|
B||----------------12-10-10-10-10h12p9—9-10-9-------|
G||-------------------------------------------11-10-|
D||-------------------------------------------------|
A||-------------------------------------------------|
E||-------------------------------------------------|

e||----5-----5-----5-5h7p4—4-5-4--------|
B||--3---3-5---5-7---------------7-5----|
G||-------------------------------------|
D||-------------------------------------|
A||-------------------------------------|  
E||-------------------------------------|

End

e||--------------|
B||--3-----------|
G||--2--2-----1--|
D||--0--2--4--2--|
A||-----0--4--2--|
E||--------2-----|

Tap to rate this tab
# A B C D E F G H I J K L M N O P Q R S T U V W X Y Z