Song name
# A B C D E F G H I J K L M N O P Q R S T U V W X Y Z

Foo Fighters - White Limo tab

White Limo by Foo Fighters
Standard Tuning
4/4
170bpm



INTRO AND VERSES/POST CHORUSES
------------------------------

E-|-----------------|-----------------|-----------------|------------------|
B-|-----------------|-----------------|-----------------|------------------|
G-|----8----------8-|-----------------|----8----------8-|------------------|
D-|--------10-------|--10---9---7-----|--------10-------|------------------|
A-|-----------------|-------9-7-7-----|-----------------|0-7/9-9-10-9-7-10-|
E-|7-7---7----7-7---|7----7---7---7-7-|7-7---7----7-7---|0-5/7-7-8--7-5-8--|
   PM_   PM   PM_    PM   PM      PM______   PM   PM_

E-|-----------------|-----------------|-----------------|------------------|
B-|-----------------|-----------------|-----------------|------------------|
G-|----8----------8-|-----------------|----8----------8-|------------------|
D-|--------10-------|--10---9---7-----|--------10-------|---------------10-|
A-|-----------------|-------9-7-7-----|-----------------|0-7/9-9-10-9-7-8--|
E-|--7---7----7-7---|7----7---7---7-7-|7-7---7----7-7---|0-5/7-7-8--7-5-8--|
     PM  PM   PM_    PM   PM      PM______   PM   PM_


the above 8 bars are played 2 times for the intro, 2 times for each verse and  once 
after each chorus



CHORUS
------

E-|----------------|----------------|----------------|----------------|
B-|----------------|----------------|----------------|----------------|
G-|--------------7-|--7-7---7-7-----|----------------|----------------| play
D-|--9-9-9-9-9---7-|--7-7---7-7---8-|--8-8---8-8---5-|--5-5---5-5---9-|  x2
A-|--9-9-9-9-9-0-5-|--5-5---5-5-0-8-|--8-8---8-8-0-5-|--5-5---5-5-0-9-|
E-|--7-7-7-7-7-0-5-|--5-5---5-5-0-6-|--6-6---6-6-0-3-|--3-3---3-3-0-7-|


followed by:


E-|-----------------|-----------------|----------------|----------------|
B-|-----------------|-----------------|----------------|----------------|
G-|----8------------|-----11----------|----7-----------|----4-----------|
D-|--9-----9--------|--12-----12----8-|--8-----8-----5-|--5-----5-----9-|
A-|--9---------0-12-|--12---------0-8-|--8---------0-5-|--5---------0-9-|
E-|--7---------0-10-|--10---------0-6-|--6---------0-3-|--3---------0-7-|


E-|-----------------|-----------------|----------------|------------------|
B-|-----------------|-----------------|----------------|------------------|
G-|----8------------|-----11----------|----6-----------|------------------|
D-|--9-----9--------|--12-----12----7-|--7-----7-----2-|------------------|
A-|--9---------0-12-|--12---------0-7-|--7---------0-2-|--7/9-9-10-9-7-10-|
E-|--7---------0-10-|--10---------0-5-|--5---------0-0-|--5/7-7-8--7-5-8--|


then the intro bit once, the verse twice, and the first half of the chorus followed by this:


E-|-----------------|-----------------|----------------|----------------|
B-|-----------------|-----------------|----------------|----------------|
G-|----8------------|-----11----------|----7-----------|----4-----------|
D-|--9-----9--------|--12-----12----8-|--8-----8-----5-|--5-----5-----9-|
A-|--9---------0-12-|--12---------0-8-|--8---------0-5-|--5---------0-9-|
E-|--7---------0-10-|--10---------0-6-|--6---------0-3-|--3---------0-7-|


E-|-----------------|-----------------|----------------|----------------|
B-|-----------------|-----------------|----------------|----9-----------|
G-|----8------------|-----11----------|----6---------9-|--9-----9-------|
D-|--9-----9--------|--12-----12----7-|--7-----7-----9-|--9-----------9-|
A-|--9---------0-12-|--12---------0-7-|--7---------0-7-|--7---------0-9-|
E-|--7---------0-10-|--10---------0-5-|--5---------0---|------------0-7-|


E-|-----------------|-----------------|----------------|----------------|
B-|-----------------|-----------------|----------------|----------------|
G-|----8------------|-----11----------|----7-----------|----4-----------|
D-|--9-----9--------|--12-----12----8-|--8-----8-----5-|--5-----5-----9-|
A-|--9---------0-12-|--12---------0-8-|--8---------0-5-|--5---------0-9-|
E-|--7---------0-10-|--10---------0-6-|--6---------0-3-|--3---------0-7-|


E-|-----------------|-----------------|----------------|------------------|
B-|-----------------|-----------------|----------------|------------------|
G-|----8------------|-----11----------|----6-----------|------------------|
D-|--9-----9--------|--12-----12----7-|--7-----7-----2-|------------------|
A-|--9---------0-12-|--12---------0-7-|--7---------0-2-|--7/9-9-10-9-7-10-|
E-|--7---------0-10-|--10---------0-5-|--5---------0-0-|--5/7-7-8--7-5-8--|


then the intro bit once again


RHYTHM BEHIND SOLOS
-------------------

E-|----------------|----------------|----------------|----------------|
B-|----------------|--------------4-|--4-5---5-4---4-|5-4-5-4---4-----|
G-|--------------9-|--9-9----9----4-|--4-4---4-4---4-|4-4-4-4---4-----| play
D-|--7-7---7-7---9-|--9-9----9----4-|--4-4---4-4---4-|4-4-4-4---4---7-|  x3
A-|--7-7---7-7---7-|--7-7----7----2-|--2-2---2-2---2-|2-2-2-2---2---7-|
E-|--5-5---5-5---7-|--7-7----7------|----------------|--------------5-|

then last time play this:

E-|----------------|----------------|----------------|------------------|
B-|----------------|--------------4-|--4-5---5-4---4-|------------------|
G-|--------------9-|--9-9----9----4-|--4-4---4-4---4-|------------------|
D-|--7-7---7-7---9-|--9-9----9----4-|--4-4---4-4---4-|------------------|
A-|--7-7---7-7---7-|--7-7----7----2-|--2-2---2-2---2-|--7/9-9-10-9-7-10-|
E-|--5-5---5-5---7-|--7-7----7------|----------------|--5/7-7-8--7-5-8--|



SOLOS
-----

E-|--------|------------7-|-------7-7------7-7------|7-7--------7--------|
B-|--------|--------0---7-|-------7-7------7-7------|7-7------7-7--------|
G-|--------|--------0-0---|--9b11-----9b11-----9b11-|----9b11------------|
D-|--------|--------0-----|-------------------------|--------------12\---|
A-|--------|--------------|-------------------------|--------------12\---|
E-|--------|--------------|-------------------------|--------------------|


E-|--------|-----------------|-------------------------|------------------|
B-|--------|------------7----|--7----9-----9-----10----|--10----12--------|
G-|--------|--------0-0-9b11-|--9b11-11b13-11b13-12b14-|--12b14-14b16-----|
D-|--------|--------0-0------|-------------------------|------------------|
A-|--------|-----------------|-------------------------|------------------|
E-|--------|-----------------|-------------------------|------------------|


E-|--------|----------------|--------------|------------------|
B-|--------|----------------|--------------|------------------|
G-|--------|------0-0-0-9bbb|bbbbbbbbbbbb14|hold-rrrr9--------|
D-|--------|------0-0-0-----|--------------|------------------|
A-|--------|--------0-------|--------------|------------------|
E-|--------|--------0-------|--------------|------------------|
                         gradually bend up       then
                         2 and a half steps      gradually
                         whilst picking in       release
                         eighths


E-|--------|------------7-|--7-7-7-7-7-7-7-|7\-----------|
B-|--------|------------7-|--7-7-7-7-7-7-7-|7\-----------|
G-|--------|--------0-0---|----------------|-------------|
D-|--------|--------0-0---|----------------|-------------|
A-|--------|--------------|----------------|-------------|
E-|--------|--------------|----------------|-------------|



then the intro riff once (with a bars rest at the end!!!)

then the intro riff again


then at the very end

E-|-----------------|-----------------|-----------------|-----------------|
B-|-----------------|-----------------|-----------------|-----------------|
G-|-----------------|-----------------|-----------------|-----------------|
D-|---------------7-|---------------7-|---------------7-|---------------7-|
A-|--7/9-9-10-9-7-9-|--7/9-9-10-9-7-7-|--7/9-9-10-9-7-7-|--7/9-9-10-9-7-7-|
E-|--5/7-7-8--7-5-7-|--5/7-7-8--7-5-5-|--5/7-7-8--7-5-5-|--5/7-7-8--7-5-5-|
Tap to rate this tab
# A B C D E F G H I J K L M N O P Q R S T U V W X Y Z