Song name
# A B C D E F G H I J K L M N O P Q R S T U V W X Y Z

Foo Fighters - Walk tab

intro x2
e|--------7-----------|
B|---10------10---10~-|
G|-9----9-------9-----|
D|--------------------|
A|--------------------|
E|--------------------|

intro cont x2
e|--------7-------------------7-------------------7-------7~------------7------------|
B|---10------10---10~-----9------9---10~-----10------10-----------10-------10----10~-|
G|-9----9-------9-------9---9------9-------7----7-------7------10----10-------10-----|
D|-----------------------------------------------------------------------------------|
A|-----------------------------------------------------------------------------------|
E|-----------------------------------------------------------------------------------|

e|--------7-------------------7-------------------7-------7~------------7--------8~--|
B|---10------10---10~-----9------9---10~-----10------10-----------10-------10--------|
G|-9----9-------9-------9---9------9-------7----7-------7------10----10-------10-----|
D|-----------------------------------------------------------------------------------|
A|-----------------------------------------------------------------------------------|
E|-----------------------------------------------------------------------------------|

Obs.: Dm* stands for a progression: D5 Dsus9 Dm Dsus4
  
Dm*
e|--x-0-1-3--|
B|--3-3-3-3--|
G|--2-2-2-2--|
D|--0-0-0-0--|
A|-----------|
E|-----------|

A

A                    E
  A million miles away
     Bm
Your signal in the distance
   Dm
To whom it may concern
A                     E
  I think I lost my way
        Bm
Getting good at starting over
      Dm
Every time that I return

A                       E
  I'm learning to walk again
          Bm
Can't you see I've waited long enough
         Dm*
Where do I begin?
A                       E 
  I'm learning to talk again
    Bm       
I believe I've waited long enough
         Dm*
Where do I begin?

A                     E
  Do you remember the day
   Bm
We built these people mountains
    Dm
And sat and watched them burn

A                    E
  I think I found my pain
          Bm
Can't you feel it growing stronger
       Dm*
Little conqueror

A                       E
  I'm learning to walk again
          Bm
Can't you see I've waited long enough
         Dm*
Where do I begin?
A                       E
  I'm learning to talk again
    Bm
I believe I've waited long enough
         Dm*
Where do I begin?

A
Now
                   E
For the very first time
                 F#m
Don't you pay no lie
       D     Dm
Set me free again


    A
You keep alive a moment at a time
But still inside a whisper to a liar
   E
To sacrifice but knowing to survive
The first to find another state of mind
    F#m             
I'm on my knees, I'm waiting for a sign
  D
Forever, whenever
  Dm
I never wanna die
  A
I never wanna die
I never wanna die
I'm on my knees
Never wanna die
E
Dancing on my grave
Running through the fight
Forever, whenever
Never wanna die
F#m
Never wanna leave
Never say goodbye
  D
Forever, whenever
  Dm
Forever, whenever

A                       E
  I'm learning to walk again
    Bm
I believe I've waited long enough
         Dm*
Where do I begin?
A                       E
  I'm learning to talk again
          Bm
Can't you see I've waited long enough
         Dm*
Where do I begin?

A                       E
  I'm learning to walk again
    Bm
I believe I've waited long enough
Dm*

A                       E
  I'm learning to talk again
          Bm
Can't you see I've waited long enough 
Dm* Dm*
Tap to rate this tab
# A B C D E F G H I J K L M N O P Q R S T U V W X Y Z