Song name
# A B C D E F G H I J K L M N O P Q R S T U V W X Y Z

Foo Fighters - Walking A Line tab

Band:	Foo Fighters
Song:	Walking A Line
Tabber:	Ruairi Coleman

Tuning Drop D

Ive only seen one version of this song on the net and its in a strange tuning.
So ive did my best to create a tab in standard tuning but the closes i got was
drop D. Ive tabbed guitar 1 first and then guitar 2 further down. (Sorry bout 
the layout) Anyways Enjoy and Please rate :)

Walking A Line - Guitar 1

  Intro
 E|----------------------------------------------|
 B|----------------------------------------------|
 G|---3~~--3~~--3~~--3~~--3~~--3~~-3~-3~-3~------|
 D|----------------------------------------------|
 A|-----------------------------------------0/---|
 D|-----------------------------------------0/---|

  Pre Verse Thingy Guitar 1 & 2
 E|---------------------------------------------------------------|
 B|---------------------------------------------------------------|
 G|-----------3-------------3-------------3-------------3---3-0---|
 D|---------------------------------------------------------------|
 A|---3-3-3-3---3-5-6-6-6-6---6-5-3-3-3-3---3-5-6-6-6-6---6-------|
 D|---------------------------------------------------------------|x2

  Verse Guitar 1
 E|-------------------------------------------------------------|
 B|-------------------------------------------------------------|
 G|-----------3-------------3-------------2-------------3-------|
 D|-------------------------------------------------------------|
 A|---3-3-3-3---3-5-6-6-6-6---6-7-8-8-8-8---8-7-6-6-6-6---6-8---|
 D|-------------------------------------------------------------|

 E|----------------------------------------------------------------|
 B|-----------1-------------3--------------------------------------|
 G|----------------------------------------8-------------5-0-3-0---|
 D|----------------------------------------------------------------|
 A|---3-3-3-3---3-2-1-1-1-1---1-0----------------------------------|
 D|--------------------------------6-6-6-6---5-8-3-3-3-3-----------|x2

  Pre Chorus thingy
 E|---------------------------------------------------|
 B|---------------------------------------------------|
 G|---3~~-3~~-3-3-3-3---------------------------------|
 D|---------------------------------------------------|
 A|---------------------------------------------------|
 D|---------------------------------------------------|

  Chorus 1 Guitar 1
 E|-----------------------------------------------------------------------------|
 B|-----------------------------------------------------------------------------|
 G|-----------------------------------------------------------------------------|
 D|-----------------------------------------------------------------------------|
 A|---10-10-10-10-10-10-10-12-13-13-13-13-13-13-13-14-15-15-15-15-15-15-15-17---|
 D|---10-10-10-10-10-10-10-12-13-13-13-13-13-13-13-14-15-15-15-15-15-15-15-17---|

 E|--------------------------------------------------|
 B|--------------------------------------------------|
 G|--------------------------------------------------|
 D|--------------------------------------------------|
 A|---18-18-18-18-18-18-18-20-23-23-23-23-23-23-23---|
 D|---18-18-18-18-18-18-18-20-22-23-23-23-23-23-23---|

 E|--------------------------------------------------------|
 B|--------------------------------------------------------|
 G|--------------------------------------------------------|
 D|--------------------------------------------------------|
 A|---10-12-13-13-13-13-13-13-13-14-15-15-15-15-15-15-15---|
 D|---10-12-13-13-13-13-13-13-13-14-15-15-15-15-15-15-15---|

 E|---------------------------------------|
 B|---------------------------------------|
 G|---------------------------------------|
 D|---------------------------------------|
 A|---18-18-18-18-18-18-18-20-23-23-23\---|
 D|---18-18-18-18-18-18-18-20-23-23-23\---|


Pre Verse x1
_________________________________

Verse 	  x2
_________________________________

  Chorus 2 Guitar 1
 E|-----------------------------------------------------------------------------|
 B|-----------------------------------------------------------------------------|
 G|-----------------------------------------------------------------------------|
 D|-----------------------------------------------------------------------------|
 A|---10-10-10-10-10-10-10-12-13-13-13-13-13-13-13-14-15-15-15-15-15-15-15-17---|\
 D|---10-10-10-10-10-10-10-12-13-13-13-13-13-13-13-14-15-15-15-15-15-15-15-17---| \
								        Play x1 only
 E|-----------------------------------------------------------------------------| /
 B|-----------------------------------------------------------------------------|/
 G|-----------------------------------------------------------------------------|
 D|-----------------------------------------------------------------------------|
 A|---18-18-18-18-18-18-18-20-23-23-23-23-23-23-23------------------------------|
 D|---18-18-18-18-18-18-18-20-23-23-23-23-23-23-23------------------------------|

 E|--------------------------------------------------------|
 B|--------------------------------------------------------|
 G|--------------------------------------------------------|
 D|--------------------------------------------------------|
 A|---10-12-13-13-13-13-13-13-13-14-15-15-15-15-15-15-15---|\
 D|---10-12-13-13-13-13-13-13-13-14-15-15-15-15-15-15-15---| \
							      Play x2
 E|--------------------------------------------------------| /
 B|--------------------------------------------------------|/
 G|--------------------------------------------------------|
 D|--------------------------------------------------------|
 A|---18-18-18-18-18-18-18-20-23-23-23-23-23-23-23---------|
 D|---18-18-18-18-18-18-18-20-23-23-23-23-23-23-23---------|

 E|--------------------------------------------------------|
 B|--------------------------------------------------------|
 G|--------------------------------------------------------|
 D|--------------------------------------------------------|
 A|---10-12-13-13-13-13-13-13-13-14-15-15-15-15-15-15-15---|\
 D|---10-12-13-13-13-13-13-13-13-14-15-15-15-15-15-15-15---| \
							      Play x1 only
 E|--------------------------------------------------------| /
 B|--------------------------------------------------------|/
 G|--------------------------------------------------------|
 D|--------------------------------------------------------|
 A|---18-18-18-18-18-18-18-20-23-23-23\--------------------|
 D|---18-18-18-18-18-18-18-20-23-23-23\--------------------|


This is wrong but its the closest i can get without drop C tuning
Fill (or whatever its called)
 E|-----------------------------------|--------|
 B|-----------------------------------|--------|
 G|-----------------------------------|-Slight-|
 D|---5------/5------/5------/5-------|-Pause--|
 A|---3------/3------/3------/3-------|--------|
 D|---0-0-0-0-0-0-0-0-0-0-0-0-0-0-0---|--------|
   \____________________x4____________________/

Guitars Short rest Bass only then went sing comes back in guitar 2
plays the chorus 2 lightly.

After Guitar 2 plays chorus 2 lightly once guitar 1 & 2 play chorus 2 heavy

Chorus 2 - Played x2 heavy

After chorus 2 is play once heavy a third guitar plays this over of Guitar 1 & 2
last part of chorus 2

   Outro Guitar 3
 E|--------------------|--------------------|
 B|--------------------|---------------4b---|
 G|------5---3---------|-------5---3-5------|
 D|--------5---5-3-5---|---------5----------|
 A|--3-3---------------|---3-3--------------|
 D|--------------------|--------------------|
   \________x3________/ \_________x1_______/
     \________________x4__________________/

Then Guitar 1 plays this outro

  Outro
 E|-----------------------------|
 B|-----------------------------|
 G|---3~~--3~~--3~~--5-0--3-0---|
 D|-----------------------------|
 A|-----------------------------|
 D|-----------------------------|


Walking A Line - Guitar 2 


   Verse - played when guitar 1 plays verse for the third time
 E|---------------------------------------------------------|
 B|---------------------------------------------------------|
 G|---------------------------------------------------------|
 D|---------------------------------------------------------|
 A|---3-3-3-3-3-3-5-6-6-6-6-6-6-7-8-8-8-8-8-8-7-6-6-6-6-6-8-|
 D|---------------------------------------------------------|

 E|-------------------------------------------------------------------|
 B|-------------------------------------------------------------------|
 G|-------------------------------------------------------------------|
 D|-------------------------------------------------------------------|
 A|---3-3-3-3-3-3-3-2-1-1-1-1-1-1-1-0---------------------------------|
 D|-----------------------------------6-6-6-6-6-6-6-8-3-3-3-3-3-3-3---|

  Chorus 1 Guitar 2
 E|-----------------------------------------------------------------------------|
 B|-----------------------------------------------------------------------------|
 G|-----------------------------------------------------------------------------|
 D|---5--5--5--5--5--5--5--7--8--8--8--8--8--8--8--9--10-10-10-10-10-10-10-12---|
 A|---3--3--3--3--3--3--3--5--6--6--6--6--6--6--6--7--8--8--8--8--8--8--8--10---|
 D|-----------------------------------------------------------------------------|

 E|--------------------------------------------------|
 B|--------------------------------------------------|
 G|--------------------------------------------------|
 D|---13-13-13-13-13-13-13-15-17-17-17-17-17-17-17---|
 A|---11-11-11-11-11-11-11-13-15-15-15-15-15-15-15---|
 D|--------------------------------------------------|

 E|-----------------------------------------------------------|
 B|-----------------------------------------------------------|
 G|-----------------------------------------------------------|
 D|---5--7--8--8--8--8--8--8--8--9--10-10-10-10-10-10-10-12---|
 A|---3--5--6--6--6--6--6--6--6--7--8--8--8--8--8--8--8--10---|
 D|-----------------------------------------------------------|

 E|---------------------------------------|
 B|---------------------------------------|
 G|---------------------------------------|
 D|---13-13-13-13-13-13-13-15-17-17-17\---|
 A|---11-11-11-11-11-11-11-13-15-15-15\---|
 D|---------------------------------------|

Guitar 1 Pre Verse x1
_________________________________

Verse - again played when guitar 1 plays verse for the third time
_________________________________

  Chorus 2 Guitar 2
 E|-----------------------------------------------------------------------------|
 B|-----------------------------------------------------------------------------|
 G|-----------------------------------------------------------------------------|
 D|---5--5--5--5--5--5--5--7--8--8--8--8--8--8--8--9--10-10-10-10-10-10-10-12---|
 A|---3--3--3--3--3--3--3--5--6--6--6--6--6--6--6--7--8--8--8--8--8--8--8--10---|\
 D|-----------------------------------------------------------------------------| \
								       Play x1 only
 E|-----------------------------------------------------------------------------| /
 B|-----------------------------------------------------------------------------|/
 G|-----------------------------------------------------------------------------|
 D|---13-13-13-13-13-13-13-15-17-17-17-17-17-17-17------------------------------|
 A|---11-11-11-11-11-11-11-13-15-15-15-15-15-15-15------------------------------|
 D|-----------------------------------------------------------------------------|

 E|-----------------------------------------------------------|
 B|-----------------------------------------------------------|
 G|-----------------------------------------------------------|
 D|---5--7--8--8--8--8--8--8--8--9--10-10-10-10-10-10-10-12---|
 A|---3--5--6--6--6--6--6--6--6--7--8--8--8--8--8--8--8--10---|\
 D|-----------------------------------------------------------| \
								 Play x2
 E|-----------------------------------------------------------| /
 B|-----------------------------------------------------------|/
 G|-----------------------------------------------------------|
 D|---13-13-13-13-13-13-13-15-17-17-17-17-17-17-17------------|
 A|---11-11-11-11-11-11-11-13-15-15-15-15-15-15-15------------|
 D|-----------------------------------------------------------|

 E|-----------------------------------------------------------|
 B|-----------------------------------------------------------|
 G|-----------------------------------------------------------|
 D|---5--7--8--8--8--8--8--8--8--9--10-10-10-10-10-10-10-12---|
 A|---3--5--6--6--6--6--6--6--6--7--8--8--8--8--8--8--8--10---|\
 D|-----------------------------------------------------------| \
								 Play x1 only
 E|-----------------------------------------------------------| /
 B|-----------------------------------------------------------|/
 G|-----------------------------------------------------------|
 D|---13-13-13-13-13-13-13-15-17-17-17\-----------------------|
 A|---11-11-11-11-11-11-11-13-15-15-15\-----------------------|
 D|-----------------------------------------------------------|

Guitars Short rest Bass only then went sing comes back in guitar 2
plays chorus 2 lightly.

Chorus 2 - play lightly 
____________________________________

Chorus 2 - Played x2 Again but played heavy

After chorus 2 is play once heavy a third guitar plays this over of Guitar 1 &2
last part of chorus 2

   Outro Guitar 3
 E|--------------------|--------------------|
 B|--------------------|---------------4b---|
 G|------5---3---------|-------5---3-5------|
 D|--------5---5-3-5---|---------5----------|
 A|--3-3---------------|---3-3--------------|
 D|--------------------|--------------------|
   \________x3________/ \_______x1_________/
    \__________________x2_________________/

Then Guitar 2 plays this outro

  Outro
 E|-----------------------------|
 B|-----------------------------|
 G|-----------------------------|
 D|---/8---/8---/8--10-5--8-5---|
 A|-----------------------------|
 D|-----------------------------|
Tap to rate this tab
# A B C D E F G H I J K L M N O P Q R S T U V W X Y Z