Song name
# A B C D E F G H I J K L M N O P Q R S T U V W X Y Z

Foo Fighters - Headwires tab

This is another by me "Foo Smily". This is another of my favorite songs off of "There 
Nothing Left To Loose" album. Hope you enjoy the tab because it is 100% accurate. Bare in 
that this is only the 2nd guitarist part. I have 2 finish the lead.


INTRO
E:---------------------------------------|
B:---------------------------------------|
G:---7-----------------------------------|
D:---7-7----4-4------7-7--7------4--4---2|
A:---5-4--0-2-0------5-5--4--0---2--0---0|
D:---------------------------0-----------|

CHORUS
E:------------------------------------------------------------------|
B:------------------------------------------------------------------|
G:------------------------------------------------------------------|
D:------4-4-4--4-4-4----2-2-2---2-2-2-0----------------------------0|
A:----0-2-2-2--2-2-2-0--0-0-0---0-0-0---5-5-5--5-5-5--5-5-5-5-5-5--0|
D:-12/0---------------------------------5-5-5--5-5-5--5-5-5-5-5-5---|

E:-------------------------------------------------------------------|
B:-------------------------------------------------------------------|
G:-------------------------------------------------------------------|
D:--5--5-5-5-5-0---5-5-5-5-5-0--5-4--0--2--0---0-5--4-0--2-0--0--0--0|
A:--3--3-3-3-3-0---2-2-2-2-2----5-5--0--2--0---0-5--5-0--2-0--0--0--0|
D:------------------------------0-0--0--2--0---0-0--0-0--2-0--0--0--0|

Bridge
E:-----------------------|
B:-----------0-----------|
G:--3-3-3-3--0--2-----2--|
D:--X-X-X-X-----X-----X--|
A:--1-1-1-1-----0-----0--|
D:-----------------------|

Hope you like this.....any questions on this tab u can PM me
>FOO SMILY< signing out!!!!!
Tap to rate this tab
# A B C D E F G H I J K L M N O P Q R S T U V W X Y Z