Song name
# A B C D E F G H I J K L M N O P Q R S T U V W X Y Z

Foo Fighters - What If I Do tab

INTRO/VERSE
    F                                         CADD9           GTR 1
E------------------------------------------------------------|
B------------------------------------------------------------|
G------2-----4----0-----2------4-----2-----0--------0--------| GTR 2
D---------------------------------------------0h2------------|
A---3-----3----3-----3-----3-----3------3--------------------|
E------------------------------------------------------------|

    F                                         CADD9
E----------------------------------------------------------------------|
B-------6-------8-------10--------12----------12---10----8-------------|
G---------------------------------------------12---10----9-------------|
D---5/7----7/9-----9/10-----10/12--------------------------------------|
A----------------------------------------------------------------------|
E----------------------------------------------------------------------|

    F                                         CADD9
E----------------------------------------------------------------------|
B----------------------------------------------------------------------|
G------2-----4----0-----2------4-----2-----0--------0------------------|
D---------------------------------------------0h2----------------------|
A---3-----3----3-----3-----3-----3------3------------------------------|
E----------------------------------------------------------------------|
    Back and forth that voice of yours        That keeps me
                                              Up at night

    F                                         CADD9
E----------------------------------------------------------------------|
B----------------------------------------------------------------------|
G------2-----4----0-----2------4-----2-----0--------0------------------|
D---------------------------------------------0h2----------------------|
A---3-----3----3-----3-----3-----3------3------------------------------|
E----------------------------------------------------------------------|
    Help me search to find the words          That eat you up inside


    F                                         CADD9
E----------------------------------------------------------------------|
B----------------------------------------------------------------------|
G------2-----4----0-----2------4-----2-----0--------0------------------|
D---------------------------------------------0h2----------------------|
A---3-----3----3-----3-----3-----3------3------------------------------|
E----------------------------------------------------------------------|
    I go side to side like the wildest tides  in your hurricane




    F                                         CADD9
E----------------------------------------------------------------------|
B----------------------------------------------------------------------|
G------2-----4----0-----2------4-----2-----0--------0------------------|
D---------------------------------------------0h2----------------------|
A---3-----3----3-----3-----3-----3------3------------------------------|
E----------------------------------------------------------------------|
    And I only hide what is on my mind because I can't explain

CHORUS 2X
    A#                  Am
E---6--------------------5---------------------------------------------|
B---6--------------------5---------------------------------------------|
G---7--------------------5---------------------------------------------|
D----------------------------------------------------------------------|
A----------------------------------------------------------------------|
E----------------------------------------------------------------------|
    What if I do, lord, what if I don't

    G#                          C
E---4---------------------------3--------------------------------------|
B---4---------------------------5--------------------------------------|
G---5---------------------------5--------------------------------------|
D----------------------------------------------------------------------|
A----------------------------------------------------------------------|
E----------------------------------------------------------------------|
    I'd have to lose everything just to find you


VERSE
    F                                         CADD9
E----------------------------------------------------------------------|
B-------6-------8-------10--------12----------12---10----8-------------|
G---------------------------------------------12---10----9-------------|
D---5/7----7/9-----9/10-----10/12--------------------------------------|
A----------------------------------------------------------------------|
E----------------------------------------------------------------------|
    It's my turn this soul won't burn         So throw me in the fire


    F                                         CADD9
E----------------------------------------------------------------------|
B-------6-------8-------10--------12----------12---10----8-------------|
G---------------------------------------------12---10----9-------------|
D---5/7----7/9-----9/10-----10/12--------------------------------------|
A----------------------------------------------------------------------|
E----------------------------------------------------------------------|
    Trophies earned and lessons learned       From Wicked little lies










    F                                         CADD9
E----------------------------------------------------------------------|
B-------6-------8-------10--------12----------12---10----8-------------|
G---------------------------------------------12---10----9-------------|
D---5/7----7/9-----9/10-----10/12--------------------------------------|
A----------------------------------------------------------------------|
E----------------------------------------------------------------------|
    We could pave new roads with their        Wind them through
    Cold gravestones                          the pines

     F                                        CADD9
E----------------------------------------------------------------------|
B-------6-------8-------10--------12----------12---10----8-------------|
G---------------------------------------------12---10----9-------------|
D---5/7----7/9-----9/10-----10/12--------------------------------------|
A----------------------------------------------------------------------|
E----------------------------------------------------------------------|
    Should I stay or should I go alone        I cannot decide

CHORUS 2X
    A#                  Am
E---6--------------------5---------------------------------------------|
B---6--------------------5---------------------------------------------|
G---7--------------------5---------------------------------------------|
D----------------------------------------------------------------------|
A----------------------------------------------------------------------|
E----------------------------------------------------------------------|
    What if I do, lord, what if I don't

    G#                          C
E---4---------------------------3---------------------------------------|
B---4---------------------------5---------------------------------------|
G---5---------------------------5---------------------------------------|
D-----------------------------------------------------------------------|
A-----------------------------------------------------------------------|
E-----------------------------------------------------------------------|
    I'd have to lose everything just to find you

OUTRO  2X
    C         G   F
E---3---------3---5----------------------------------------------------|
B---5---------3---6----------------------------------------------------|
G---5---------4---5----------------------------------------------------|
D----------------------------------------------------------------------|
A----------------------------------------------------------------------|
E----------------------------------------------------------------------|
    Carolina, Caroline

SOLO
   F                              CADD9
E|-------------------------------------------3---5---5---3----|
B|13-13b15b13-12-13-10b12b10-8-10-5-5b6b5-3/5---5---5---5-5---|
G|------------------------------------------------------------|
D|------------------------------------------------------------|
A|------------------------------------------------------------|
E|------------------------------------------------------------|
    F                             CADD9
E|-------------------------------------------3---5---5----1--0---|
B|13-13b15b13-12-13-10b12b10-8-10-5-5b6b5-3/5---5---5---5-3--1---|
G|---------------------------------------------------------------|
D|---------------------------------------------------------------|
A|---------------------------------------------------------------|
E|---------------------------------------------------------------|

CHORUS 2X
    A#                  Am
E---6--------------------5---------------------------------------------|
B---6--------------------5---------------------------------------------|
G---7--------------------5---------------------------------------------|
D----------------------------------------------------------------------|
A----------------------------------------------------------------------|
E----------------------------------------------------------------------|
    What if I do, lord, what if I don't

    G#                          C
E---4---------------------------3---------------------------------------|
B---4---------------------------5---------------------------------------|
G---5---------------------------5---------------------------------------|
D-----------------------------------------------------------------------|
A-----------------------------------------------------------------------|
E-----------------------------------------------------------------------|
    I'd have to lose everything just to find you


OUTRO 4X
    C         G   F
E---3---------3---5----------------------------------------------------|
B---5---------3---6----------------------------------------------------|
G---5---------4---5----------------------------------------------------|
D----------------------------------------------------------------------|
A----------------------------------------------------------------------|
E----------------------------------------------------------------------|
    Carolina, Caroline
Tap to rate this tab
# A B C D E F G H I J K L M N O P Q R S T U V W X Y Z