Song name
# A B C D E F G H I J K L M N O P Q R S T U V W X Y Z

Foo Fighters - Resolve tab

-------------------------------------------------------------------------------
                             Resolve - Foo Fighters
-------------------------------------------------------------------------------
Tabbed by: scorpsfan830
E-mail: jacobselsor@gmail.com

Tuning: Standard (EADGBe)

This is a pretty good song and it's fun to play too. Enjoy.



Intro
e||--3-3-3-3-3-3-3--|
B||--3-3-3-3-3-3-3--|
G||--0-0-0-0-0-0-0--|
D||--0-0-0-0-0-0-0--|
A||--x-x-x-x-x-x-x--|
E||--2-3-2-3-2-3-2--|

e||---------------------------------------------------|
B||---------------------------------------------------|
G||---------------------------------------------------|
D||--11--7--9-9---7-7--9-----------7--9--7------9-----|
A||-------------9--------7-7-7/10-----------10----9/2-|
E||---------------------------------------------------|

e|----------------------------------------------------------------|
B|----------------------------------------------------------------|
G|----------------------------------------------------------------|
D|-/12--11--9-9-11--7-7-9-9-9-/12-11--12/14-12--7--9--7--9--7-----|
A|------------------------------------------------------------9/2-|
E|----------------------------------------------------------------|

e||--3-3-3-3-3-3-3--|
B||--3-3-3-3-3-3-3--|
G||--0-0-0-0-0-0-0--|
D||--0-0-0-0-0-0-0--|
A||--x-x-x-x-x-x-x--|
E||--2-3-2-3-2-3-2--|


Verse
     A             Em7          G             D
e||--0-0-0-0-0-0-0---0-0-0-0----3-3-3-3-3-3-3-2-2-2-2-2-2-2--|
B||--0-0-0-0-0-0-0---3-3-3--3-3-3-3-3-3-3-3-3-3-3-3-3-3-3-3--|
G||--2-2-2-2-2-2-2-0-0-0-0---0--0-0-0-0-0-0-0-2-2-2-2-2-2-2--|
D||--2-2-2-2-2-2-2-2-2-2-2------0-0-0-0-0-0-0-0-0-0-0-0-0-0--|
A||--0-0-0-0-0-0-0-2-2-2-2------2-2-2-2-2-2-2----------------|
E||----------------0-0-0-0------3-3-3-3-3-3-3----------------|


Pre-Chorus
e||--3-3-3-3-3-3-3--|
B||--3-3-3-3-3-3-3--|
G||--0-0-0-0-0-0-0--|
D||--0-0-0-0-0-0-0--|
A||--x-x-x-x-x-x-x--|
E||--2-3-2-3-2-3-2--|


Chorus
     A             Em7          D             G
e||--0-0-0-0-0-0-0---0-0-0-0--0---2-2-3-2-0-2-3-3-3-3-3-3-3--|
B||--0-0-0-0-0-0-0---3-3-3--3--3--3-3-3-3-3-3-3-3-3-3-3-3-3--|
G||--2-2-2-2-2-2-2-0-0-0-0---0--0-2-2-2-2-2-2-2-0-0-0-0-0-0--|
D||--2-2-2-2-2-2-2-2-2-2-2--------0-0-0-0-0-0-0-0-0-0-0-0-0--|
A||--0-0-0-0-0-0-0-2-2-2-2--------------------2-2-2-2-2-2-2--|
E||----------------0-0-0-0--------------------3-3-3-3-3-3-3--|


e||--3-3-3-3-3-3-3--|
B||--3-3-3-3-3-3-3--|
G||--0-0-0-0-0-0-0--|
D||--0-0-0-0-0-0-0--|
A||--x-x-x-x-x-x-x--|
E||--2-3-2-3-2-3-2--|

                                                                 
e||--------------------------------------------------------------------|
B||--------------------------------------------------------------------|
G||--------------------------------------------------------------------| (x2)
D||--2-2-----0-0-2-2---2-2-2-0-0-------------0-0-----------------------|
A||------4-4----------------------0-0-2--2-2-----4-4-0-2-2-0-0--0-0-0--|
E||--------------------------------------------------------------------|

e|------------------------------|
B|------------------------------|
G|------------------------------|
D|------------------------------|
A|--2-0-2-0-2-0-----------------|
E|---------------2-3-2-3-2-3-2--|

e||-----------------|
B||-----------------|
G||-----------------|
D||--7-9-7-9-7------|
A||-------------9/--|
E||-----------------|

Final
e||--0---0---0---0-------2---2--0h2-------------0---|
B||--0---2---3---2-----3------------3-0---------0---|
G||--2---2---2---2---0------------------0-------2---|
D||--2---2---2---2------------------------0-----2---|
A||--0---0---0---0--------------------------0---0---|
E||-------------------------------------------------|


* Lyrics *

Something that I felt today
Something that I heard
Swinging from the chandelier
Hanging on your word
I remember watchin' you
Once upon a time
Dancing from across the room
In another life

A little bit of resolve
Is what I need now
Pin me down
Show me how

A little bit of resolve
Is what I need now
Pin me down
Show me how

Lookin' back to find my way
Never seemed so hard
Yesterday's been laid to rest
Changing of the guard
I would never change a thing
Even if I could
All the songs we used to sing
Everything was good

A little bit of resolve
Is what I need now
Pin me down
Show me how

A little bit of resolve
Is what I need now
Pin me down
Show me how

One more year that you're not here
Has gone and passed you by
What happened to you, what happened to you
One more tear that you won't hear
Has gone and passed you by
What happened to you, what happened to you

A little bit of resolve
Is what I need now
Pin me down
Show me how

A little bit of resolve
Is what I need now
Pin me down
Show me how

A little bit of resolve
One more year that you're not here
Has gone and passed you by (A little bit of resolve)

A little bit of resolve
One more year that you're not here
Has gone and passed you by (A little bit of resolve)
*******************************************************************************
Please post any NICE comments/questions if you have any. THANKS AND ROCK ON!!!!

*******************************************************************************

| /   slide up
| \   slide down
| h   hammer-on
| p   pull-off
| ~   vibrato
| +   harmonic
| x   Mute note
| b   Bend
| pb  Pre-bend
| br  Bend release
| pbr Pre-bend release
| brb Bend release bend

*******************************************************************************
Tap to rate this tab
 
# A B C D E F G H I J K L M N O P Q R S T U V W X Y Z