Song name
# A B C D E F G H I J K L M N O P Q R S T U V W X Y Z

Foo Fighters - Milk tab

Tuning Eb Ab Db Gb Bb eb (SOME YOU FIND ON YOUTUBE ARE LOWER THAN OTHERS...SO EITHER ITS 
STANDARD OR FLAT)
~ THIS MEANS BEND

VERSE:
e--------------------------------------------|
B--------2--------2--------2-----------------|
G--------2--------2--------2-----------------|
D---0-0--------------------------------------|
A------------2-2-----------------------------|
E---------------------2-2--------------------|
KEEP REPEATING UNTIL CHORUS

CHORUS:
e--3---------------------------0---------0----------------|
B--0---------------------------0---------0----------------|
G--0------------------------------------------------------|   REPEAT TWICE
D--0----------3-3--3-3-3-----2---------2------------------|
A--2----------3-3--3-3-3-----2---------2------------------|
E--3----------1-1--1-1-1-----0-----2~~-0-----2~~----------|
KEEP STRUMMING THE G CHORD UNTIL IT TURNS TO AN F KIND OF OFF BEAT

YOU CAN FIGURE OUT THE TIMING FOR IT YOURSELF.

THE VERSES ARE CLEAN EXCEPT THE LAST TIME THE VERSE IS PLAYED

PLAY THE CHORUS MULTIPLE TIMES AFTER THE LAST VERSE
Tap to rate this tab
 
# A B C D E F G H I J K L M N O P Q R S T U V W X Y Z