Song name
# A B C D E F G H I J K L M N O P Q R S T U V W X Y Z

Foo Fighters - This Will Be Our Year tab

Song:This Will be Our Year
Band:Foo Fighters
Tabbed by:J.Bennett
E-mail:jackbennett44@hotmail.com

E|-------------------------------------------------------------------------|
B|--------2-----------2-----------2----------------------------------------|
G|--------------------------------------------2-----------2-----------2----|
D|-----2-----2-----2-----2-----2-----2-----0-----0-----0-----0-----0-----0-|
A|--0----------------------------------------------------------------------|
E|--------------4-----------3-----------2-----------1-----------0----------|

-------------------||
--------7s5--3-----||
-----2-------------||
--0----------------||
----------------0--||
-------------------||

If you have anything different to this (or the rest of it), please e-mail me at my address above.
Tap to rate this tab
 
# A B C D E F G H I J K L M N O P Q R S T U V W X Y Z