Song name
# A B C D E F G H I J K L M N O P Q R S T U V W X Y Z

Foo Fighters - Enough Space tab

Intro 
Really Spacey and Modified but you can play this.

e|----3--5--7--|
B|----0--0--0--|
G|----0--0--0--|
D|-------------|
A|-------------|
E|-------------|
I just usually mess around with the effects and mess with the chords.

Main Bass Riff

e|-------------------|
B|-------------------|
G|-------------------|
D|-------------------|
A|-------4h5---------|
E|-----3-----0-4h5-55|

Main Guitar Riff

e|-----------------|
B|-----------------|
G|----6-7----------|
D|--5-6s7-0-6-7-77-|
A|--5-4-5-0-6s7-77-|
E|--3-----0-4-5-55-|

Bridge/Solo

e|----------| |----------------------------------------------------------|
B|----------| |----------------------------------------------------------|
G|---7--7-7.| |----------------------------------------------------------|
D|---5--4s6.| |-----------8b--------------77777-9b-77777-9b-77777-9-7-9b-|
A|----------| |--4-4---4-4---4-4---4-4-5b--------------------------------|
E|----------| |--2-2-0-2-2---2-2-0-2-2-----------------------------------|

Just repeat the different parts as needed.

I was waiting for something
maybe flying machines
that's when I found Lily
the best I'd ever seen
put her on the ceiling
try to maker he my own
people line up to see
but there never seems to be enough space!

Thank You for picking my tab this is my second of many check out my profile 
for more tabs comment if you have any questions.

Tap to rate this tab
# A B C D E F G H I J K L M N O P Q R S T U V W X Y Z