Song name
# A B C D E F G H I J K L M N O P Q R S T U V W X Y Z

Foo Fighters - A320 tab

Help us improve GuitareTab! Take a short survey!
Foo Fighters - A320
by jjhand

Normal Tuning-

This is a correct tab of the complete song, since pieces of it are in 
other tabs on this site.

Let all parts ring, especially open strings

Intro
(Gtr. 1) play 3x			4th measure
     
e||------------------------------------|----------------------------|
B||-----------------------------------o|----------------------------|
G||------------------------------------|----------------------------|
D||------------------------------------|----------------------------|
A||----5----5----4----4-5-4-2-0-------o|----5----5----4-------------|
E||--3----3----3----3-----------2------|--3----3----3---------------|

(Gtr. 2) Starts on 3rd measure
e||------------------------------------|----------------------------|
B||------------------------------------|----------------------------|
G||----7----7-------0---0--------------|----7----7----0-------------|
D||--5----5----5-4----4---4-2-0--------|--5----5----5-4-------------|
A||------------------------------------|----------------------------|
E||------------------------------------|----------------------------|


Verse 1 Riff
(Gtr. 1) play 2x
e||--------------------------------|--0----0-0----0-0----0-0----0--|
B||----3----3---------------------o|--3----3-3----3-3----3-3----3--|
G||--0----0----0----0---0----------|--0----0-0----0-0----0-0----0--|
D||--------------4----4---4-2-0----|--2----2-2----2-2----2-2----2--|
A||-------------------------------o|--2----2-2----2-2----2-2----2--|
E||--------------------------------|--0----0-0----0-0----0-0----0--|
 ||
 || (Gtr. 2) play 2x (start with slow upstroke)
 ||
e||--3----3-3--3-2----2-2--2-2-----|--0----0-0---0-------0---------|
B||--3----3-3--3-3----3-3--3-3----o|--3----3-3-----3-------3-------|
G||--0----0-0--0-2----2-2--2-2-----|--0----0-0-------0-------0-----|
D||--0----0-0--0-0----0-0--0-0-----|--2----2-2---------2-------2---|
A||-------------------------------o|--2----2-2---------------------|
E||--3----3-3--3-2----2-2--2-2-----|--0----0-0---------------------|

Gtr. 1
e||------------------------------------|
B||--4-4---4-4---4-4---4-4---4-4-4-----|
G||--0-0---0-0---0-0---0-0---0-0-0-----|
D||--5-5---5-5---5-5---5-5---5-5-5-----|
A||--6-6---6-6---6-6---6-6---6-6-6-----|
E||------------------------------------|
 ||
 ||Gtr. 2
e||------------------------------------|
B||--4-4---4-4---4-4---4-4---4/6-6-----|
G||--0-0---0-0---0-0---0-0---0-0-0-----|
D||--5-5---5-5---5-5---5-5---5/7-7-----|
A||--6-6---6-6---6-6---6-6---6/8-8-----|
E||------------------------------------|

Repeat verse

Post-verse duet, after playing verse 2x
(Gtr. 1) play 2x
e||--------------------------------|
B||----3----3---------------------o|
G||--0----0----0----0---0----------|
D||--------------4----4---4-2-0----|
A||-------------------------------o|
E||--------------------------------|

Guitar 2 (after doing verse 2x)
e||-----5----3----2----3------3----|----3-----3-----3-----3-----3-----|
B||-------------------------------o|----------------------------------|
G||--/4---/4---\2---\0-------------|--0---0-----0-----0-----0-----0---|
D||--------------------------------|--------5-----5-----5-----5-----5-|
A||-------------------------------o|----------------------------------|
E||--------------------------------|----------------------------------|

while Guitar 2 plays Verse 1 riff
Verse 2- Guitar 1  
e||--------------------------------|-----------------------------|-----------------------|
B||-------------------------------o|-----------------------------|-----4---4-4--4-4--4-4-|
G||----4----4----2----2-4-2-0------|----4----4----2----2-0-2-0---|---4-----4-4--4-4--4-4-|
D||--0----0----0----0---------2-0--|---------------------------2-|-5-------5-5--5-5--5-5-|
A||-------------------------------o|-----------------------------|-----------------------|
E||--------------------------------|--0----0----0----0-----------|-----------------------|

Break
Guitar 1 & 2 (Guitar 1 plays notes on B string)
e||---------------------------|----------------------|
B||------3----3/5----5/7--7---|--0-------------------|
G||----0-----0------0---------|--2~------------------|
D||--4-----5------7---------7-|--3~------------------|
A||---------------------------|--3~------------------|
E||---------------------------|--1~------------------|

Gtr. 1
e||----------------------------------|-----------------------------|
B||----------------------------------|-----------------------------|
G||----------------------------------|-----------------------------|
D||----------------------------------|-----------------------------|
A||----5----5----4----4-5-4-2-0------|----5----5----4-5-4-5-4-2-0--|
E||--3----3----3----3-----------2----|--3----3----3----------------|

(Gtr. 2) Starts on 3rd measure
e||----------------------------------|-----------------------------|
B||----------------------------------|-----------------------------|
G||----7----7-------0---0------------|----7----7------0---0--------|
D||--5----5----5-4----4---4-2-0------|--5----5----5-4---4---4-2-0--|
A||----------------------------------|-----------------------------|
E||----------------------------------|-----------------------------|

Guitar 1 & 2 (Guitar 1 plays notes on B string)
e||---------------------------|----------------------|
B||------3----3/5----5/7--7---|--0-------------------|
G||----0-----0------0---------|--2~------------------|
D||--4-----5------7---------7-|--3~------------------|
A||---------------------------|--3~------------------|
E||---------------------------|--1~------------------|

Play Post Verse Duet 2x then play

Guitar 1  w/ Heavy Distortion (repeat 4 times)
e||----------------------|----------------------------------|
B||----------------------|---------------------------------o|
G||----------------------|----------------------------------|
D||------------0-0--3-3~~|--3-3---3-3---3-3---3-3-----------|
A||-------2-2------------|--3-3---3-3---3-3---3-3----------o|
E||--3-3-----------------|--1-1---1-1---1-1---1-1--1-0-1-0--|

Guitar 2 (on 2nd Repeat)
e||----------------------|----------------------------------|
B||----------------------|---------------------------------o|
G||-------------------NH-|----------------------------------|
D||------------0-0--3-5~~|--3-3---3-3---3-3---3-3-----------|
A||-------2-2------------|--3-3---3-3---3-3---3-3----------o|
E||--3-3-----------------|--1-1---1-1---1-1---1-1--1-0-1-0--|

e||----------------------|----------------------------------|
B||----------------------|---------------------------------o|
G||----------------------|----------------------------------|
D||------------0-0--3-3~~|--3-3---3-3---3-3---3-3-----------|
A||-------2-2------------|--3-3---3-3---3-3---3-3----------o|
E||--3-3-----------------|--1-1---1-1---1-1---1-1--1-0-1-0--|

e||----------------------|----------------------------------|
B||----------------------|---------------------------------o|
G||-------------------7~~|----------------------------------|
D||------------0-0--3----|--3-3---3-3---3-3---3-3-----------|
A||-------2-2------------|--3-3---3-3---3-3---3-3----------o|
E||--3-3-----------------|--1-1---1-1---1-1---1-1--1-0-1-0--|

e||----------------------|----------------------------------|
B||-------------------0--|---------------------------------o|
G||-------------------0--|----------------------------------|
D||------------0-0--3----|--3-3---3-3---3-3---3-3-----------|
A||-------2-2------------|--3-3---3-3---3-3---3-3----------o|
E||--3-3-----------------|--1-1---1-1---1-1---1-1--1-0-1-0--|

Both Guitars
e||----------------------|
B||----------------------|
G||----------------------|
D||------------0-0--5-5~~|
A||-------2-2------------|
E||--3-3-----------------|


Outro - Guitar 1
e||--------------------------|----------------------------|
B||--------------------------|---------------------------o|
G||--------------------------|----------------------------|
D||--------------------------|----------------------------|
A||--2-2-2-3--5---0-0-0h2-0--|--5-5-5-6--8---3-3-3-5--7--o|
E||--3-3-3-3--3---2-2-2---2--|--6-6-6-6--6---4-4-4-4--4---|

Guitar 2 (or use Octave pedal on Guitar 1)
e||--------------------------|----------------------------|
B||--------------------------|---------------------------o|
G||--4-4-4-5--7---2-2-2h4-2--|--7-7-7-8--10--5-5-5-7--8---|
D||--5-5-5-5--5---4-4-4---4--|--8-8-8-8--8---6-6-6-6--6---|
A||--------------------------|---------------------------o|
E||--------------------------|----------------------------|
Related for A320 tab