Song name
# A B C D E F G H I J K L M N O P Q R S T U V W X Y Z

Foo Fighters - Everlong Acoustic tab

Well this is my first tab, so sorry its not amazing, but here's Everlong


(Drop D tuning, no capo)


Intro and verse
----------------------------------------------------------|
----------------------------------------------------------|
----------------------------------------------------------|
-----11---11-11---11-11---11--11-11-11--------------------|
-----9----9--9----9--9----9---9--9--9---------------------|
-0-0----0-------0--------0---0----------------------------|

----------------------------------------------------------|
----------------------------------------------------------|
----------------------------------------------------------|
-----11---11-11---11-11---11--11-11-11--------------------|
-----9----9--9----9--9----9---9--9--9---------------------|
-9-9----9-------9--------9---9----------------------------|

------------------------------------------------------------|
------------------------------------------------------------|
------------------------------------------------------------|
-----7----7--7--------11------11----11-------11------11-11--|
-----5----5--5--------9-------9-----9--------9-------9--9---|
-5-5---55---------9-9-----9-9-----9------9-9-----9-9--------| X7

Chorus
----------------------------------------------------------|
----------------------------------------------------------|
-6-6-6--7-7-7--9-9-9--11-11/12/11-------------------------|
----------------------------------------------------------|
-4-4-4--5-5-5--7-7-7--9--9-/10/9-------7-7-7-7-7-7-7------|
---------------------------------------7-7-7-7-7-7-7------| X2

----------------------------------------------------------|
----------------------------------------------------------|
-6-6-6--7-7-7--9-9-9--11-11/12/11-------------------------|
----------------------------------------------------------|
-4-4-4--5-5-5--7-7-7--9--9-/10/9--------------------------|
----------------------------------------------------------|

------------------------------------------------------------|
------------------------------------------------------------|
-------------------------------7-7-7-7-7-7-7-7-7-7-7-7-7-7--|
-------------------------------7-7-7-7-7-7-7-7-7-7-7-7-7-7--|
-9-9-9-9-9-9-9--5-5-5-5-5-5-5--5-5-5-5-5-5-5-5-5-5-5-5-5-5--|
-9-9-9-9-9-9-9--5-5-5-5-5-5-5-------------------------------| X2

-----------------------------------------------------------|
-----------------------------------------------------------|
-------------------------------7-7-7-7-7-7-7---------------|
-------------------------------7-7-7-7-7-7-7---------------|
-9-9-9-9-9-9-9--5-5-5-5-5-5-5--5-5-5-5-5-5-5-7-7-7-7-7-7-7-|
-9-9-9-9-9-9-9--5-5-5-5-5-5-5----------------7-7-7-7-7-7-7-|

----------------------------------------------------------|
----------------------------------------------------------|
----------------------------------------------------------|
----------------------------------------------------------|
-5-5-5-5-5-5-5-5-5-5-5-5-5-5-5-5--------------------------|
-5-5-5-5-5-5-5-5-5-5-5-5-5-5-5-5--------------------------|

Verse
----------------------------------------------------------|
----------------------------------------------------------|
----------------------------------------------------------|
-----11---11-11---11-11---11--11-11-11--------------------|
-----9----9--9----9--9----9---9--9--9---------------------|
-0-0----0-------0--------0---0----------------------------|

----------------------------------------------------------|
----------------------------------------------------------|
----------------------------------------------------------|
-----11---11-11---11-11---11--11-11-11--------------------|
-----9----9--9----9--9----9---9--9--9---------------------|
-9-9----9-------9--------9---9----------------------------|

------------------------------------------------------------|
------------------------------------------------------------|
------------------------------------------------------------|
-----7----7--7--------11------11----11-------11------11-11--|
-----5----5--5--------9-------9-----9--------9-------9--9---|
-5-5---55---------9-9-----9-9-----9------9-9-----9-9--------| X3

Chorus
----------------------------------------------------------|
----------------------------------------------------------|
-6-6-6--7-7-7--9-9-9--11-11/12/11-------------------------|
----------------------------------------------------------|
-4-4-4--5-5-5--7-7-7--9--9-/10/9-------7-7-7-7-7-7-7------|
---------------------------------------7-7-7-7-7-7-7------| X2

----------------------------------------------------------|
----------------------------------------------------------|
-6-6-6--7-7-7--9-9-9--11-11/12/11-------------------------|
----------------------------------------------------------|
-4-4-4--5-5-5--7-7-7--9--9-/10/9--------------------------|
----------------------------------------------------------|

------------------------------------------------------------|
------------------------------------------------------------|
-------------------------------7-7-7-7-7-7-7-7-7-7-7-7-7-7--|
-------------------------------7-7-7-7-7-7-7-7-7-7-7-7-7-7--|
-9-9-9-9-9-9-9--5-5-5-5-5-5-5--5-5-5-5-5-5-5-5-5-5-5-5-5-5--|
-9-9-9-9-9-9-9--5-5-5-5-5-5-5-------------------------------| X2

-----------------------------------------------------------|
-----------------------------------------------------------|
-------------------------------7-7-7-7-7-7-7---------------|
-------------------------------7-7-7-7-7-7-7---------------|
-9-9-9-9-9-9-9--5-5-5-5-5-5-5--5-5-5-5-5-5-5-7-7-7-7-7-7-7-|
-9-9-9-9-9-9-9--5-5-5-5-5-5-5----------------7-7-7-7-7-7-7-|

----------------------------------------------------------|
----------------------------------------------------------|
----------------------------------------------------------|
----------------------------------------------------------|
-5-5-5-5-5-5-5-5-5-5-5-5-5-5-5-5--------------------------|
-5-5-5-5-5-5-5-5-5-5-5-5-5-5-5-5--------------------------|

Instrumental bit

----------------------------------------------------------|
----------------------------------------------------------|
----------------------------------------------------------|
-----11---11-11---11-11---11--11-11-11--------------------|
-----9----9--9----9--9----9---9--9--9---------------------|
-0-0----0-------0--------0---0----------------------------|

----------------------------------------------------------|
----------------------------------------------------------|
----------------------------------------------------------|
-----11---11-11---11-11---11--11-11-11--------------------|
-----9----9--9----9--9----9---9--9--9---------------------|
-9-9----9-------9--------9---9----------------------------|

-----------------------------------------------------------|
-----------------------------------------------------------|
-----------------------------------------------------------|
-----7----7--7--------11------11----11-------11------11-11-|
-----5----5--5--------9-------9-----9--------9-------9--9--|
-5-5---55---------9-9-----9-9-----9------9-9-----9-9-------|

End Chorus
----------------------------------------------------------|
----------------------------------------------------------|
-6-6-6--7-7-7--9-9-9--11-11/12/11-------------------------|
----------------------------------------------------------|
-4-4-4--5-5-5--7-7-7--9--9-/10/9--------------------------|
----------------------------------------------------------| X5

------------------------------------------------------------|
------------------------------------------------------------|
-------------------------------7-7-7-7-7-7-7-7-7-7-7-7-7-7--|
-------------------------------7-7-7-7-7-7-7-7-7-7-7-7-7-7--|
-9-9-9-9-9-9-9--5-5-5-5-5-5-5--5-5-5-5-5-5-5-5-5-5-5-5-5-5--|
-9-9-9-9-9-9-9--5-5-5-5-5-5-5-------------------------------| X2

-----------------------------------------------------------|
-----------------------------------------------------------|
-------------------------------7-7-7-7-7-7-7---------------|
-------------------------------7-7-7-7-7-7-7---------------|
-9-9-9-9-9-9-9--5-5-5-5-5-5-5--5-5-5-5-5-5-5-7-7-7-7-7-7-7-|
-9-9-9-9-9-9-9--5-5-5-5-5-5-5----------------7-7-7-7-7-7-7-|

----------------------------------------------------------|
----------------------------------------------------------|
----------------------------------------------------------|
--------------------------------------------11-let ring---|
-5-5-5-5-5-5-5-5-5-5-5-5-5-5-5-5------------9--let ring---|
-5-5-5-5-5-5-5-5-5-5-5-5-5-5-5-5------------0--let ring---|

Hello
I've waited here for you... Everlong
Tonight I throw myself into
And out of the red
Out of her head she sang

Come down
And waste away with me
Down with me
Slow how
You wanted it to be
Over my head
Out of her head she sang

And I wonder
When I sing along with you
If everything could ever feel this real forever
If anything could ever be this good again
The only thing I'll ever ask of you
You've got to promise not to stop when I say when
She sang

Breathe out so I can breathe you in
Hold you in
And now I know you've always been
Out of your head, out of my head I sang

And I wonder
When I sing along with you
If everything could ever feel this real forever
If anything could ever be this good again
The only thing I'll ever ask of you
You've got to promise not to stop when I say when
She sang




Enjoy :)
Tap to rate this tab
# A B C D E F G H I J K L M N O P Q R S T U V W X Y Z