Song name
# A B C D E F G H I J K L M N O P Q R S T U V W X Y Z

Foo Fighters - Better Off tab

                                                                Foo Fighters  Better Off 
Guitar 1
e|-----------------------|    \
B|-----------------------|    |
G|-----------------------|    |
D|-------8---------------| x3 |
A|-----------------------|    |
E|-6---6----6---9-6-9b---|    |
                           |Intro (all these parts are played together)|
Guitar 2                      |
e|-----------------------|    |
B|-----------------------|    |
G|-----------------------|    |
D|-------8---------------| x2 |
A|--------------8-6-8b---|    |
E|-6---6----6------------|    |
                              | 
Guitar 3                      |
e|-----------------------|    |
B|-----------------------|    | 
G|-----------------------|    | 
D|-------8------6---6b---| x1 |
A|----------------8------|    |
E|-6---6----6------------|    |
                              |       
Link (all guitars play)       |
e|-------------------------|  |
B|-------------------------|  |
G|-------------------------|  |
D|-8-8-8-8-8-8-8-8-8-8-8-8-|  |
A|-8-8-8-8-8-8-8-8-8-8-8-8-|  |
E|-6-6-6-6-6-6-6-6-6-6-6-6-|  /


  Verse                     *(on repeat, from here continue on
e|--------------------------6----|--------|  and omit the last chord)
B|--------3-----2-----------8----|--3-----|
G|-7------3-----2-----2-----6----|--3-----|
D|-8-x12--5-x4--4-x4--3-----8-x4-|--3-x4--|
A|-8------5-----4-----3-x4--6----|--1-----|
E|-6------3-----2-----1----------|--------|

**Repeat Intro

  Chorus                 
e|-------------|------------------|-------------------------|  
B|-3------2----|------------------|-------------------------|
G|-3------2----|-------9-----8----|-------------------------|
D|-5------4-x4-|-8-----9-x4--8-x4-|-------------------------|
A|-5-x4---4----|-8-x4--7-----6----|-------------------------|
E|-3------2----|-6----------------|-6-7-8-6-7-8-6-7-8-6-7-8-|
                ^strum changes here              

e|--------------------------------------|      
B|--------------------------------------|    
G|--------------------------------------|    
D|-8--8-8--8-8--8-8--8-8--8-8--8-8-11---|   
A|-8--8-8--8-8--8-8--8-8--8-8--8-8-11---|  
E|-6--6-6--6-6--6-6--6-6--6-6--6-6-9----|

e|-------------|------------------|-------------------------|  
B|--------3----|------------------|-------------------------|
G|-7------3----|-------9-----8----|-------------------------|
D|-8------5-x4-|-8-----9-x4--8-x4-|-------------------------|
A|-8-x4---5----|-8-x4--7-----6----|-------------------------|
E|-6------3----|-6----------------|-6-7-8-6-7-8-6-7-8-6-7-8-|
                ^strum changes here              

e|-------------------------------------|      
B|-------------------------------------|    
G|-------------------------------------|    
D|-8--8-8--8-8--8-8--8-8--8-8-8-\------|   
A|-8--8-8--8-8--8-8--8-8--8-8-8-\------|  
E|-6--6-6--6-6--6-6--6-6--6-6-6-\------|

**Repeat Verse
**Repeat Intro

  Bridge
e|-3------2------6-------------|      |--------------------|
B|-3------2------6-------------|      |--------------------|
G|-3------2------7-------------|      |--------------------|
D|-5------4------8-------------| x2   |-----------3---3/8--|
A|-5------4------8-------------|      |-1---1/5------------|
E|-3------2------6-------------|      |--------------------|

Chorus Alteration
e|-------------------------------|-------------------------|  
B|-3------2----------------------|-------------------------|
G|-3------2-----------9-----8----|-------------------------|
D|-5------4-x4--8-----9-x4--8-x4-|-------------------------|
A|-5-x4---4-----8-x4--7-----6----|-------------------------|
E|-3------2-----6----------------|-6-7-8-6-7-8-6-7-8-6-7-8-|

e|------------------------------------|
B|------------------------------------|
G|------------------------------------|
D|--------3-5-------------------------| x4
A|-1--3/5-----3b--1----1--3-----1--3--|
E|------------------3--------2--------|

**Repeat Chorus
**RepeatChorus Alteration


Outro
e|-------------------------|-----------------|
B|-------------------------|-----------------|
G|-------------------------|-----------------|
D|-5---5---5---4---4---4---|-8---8-8---------| x4
A|-5---5---5---4---4---4---|-8---8-8---------|
E|-3---3---3---2---2---2---|-6---6-6---------|

e|--------------|
B|--------------|
G|--------------|
D|------------8\|
A|--------------|
E|------------6\|
Tap to rate this tab
 
# A B C D E F G H I J K L M N O P Q R S T U V W X Y Z