Song name
# A B C D E F G H I J K L M N O P Q R S T U V W X Y Z

Foo Fighters - Next Year Acoustic tab

-----------------------------------------------------------------------------
                        Next Year Acoustic - Foo Fighters
-----------------------------------------------------------------------------
Tabbed by: ehbacon
E-mail: ehbacon@att.net

Tuning: standard
Lyrics: azlyrics.com

intro/verse:

e|-10-10-10-1010-10-10-10-1010-3---33-3---33-33-|
B|--0--0--0--0-0--7--7--7--7-7-1---11-1---11-11-|
G|--0--0--0--0-0--0--0--0--0-0-0---00-0---00-00-|
D|--9--9--9--9-9--0--0--0--0-0-0p2-22-0p2-22-00-| (x4)
A|-10-10-10-1010--9--9--9--9-9----------------3-|
E|----------------------------------------------|
  I'm in the sky tonight,
There I can keep by your side...

e|-10-10-10-1010-10-10-10-1010-33--0-00-0-00-3-3-3-3-2-2-2-2-3-|
B|--0--0--0--0-0--7--7--7--7-7-11--2-22-2-22-1-1-1-1-1-1-1-1-0-|
G|--0--0--0--0-0--0--0--0--0-0-00--0-00-0-00-0-0-0-0-2-2-2-2-0-|
D|--9--9--9--9-9--x--x--x--x-x-22--2-22-2-22-2-2-2-2-0-0-0-0-0-|
A|-10-10-10-1010--9--9--9--9-9-33--0-00-0-00-3-3-3-3---------2-|
E|----------------8--8--8--8-8-------------------------------3-|
   Watching the wide world riot and hiding out
I'll be coming home next year.

Guitar 2:
      (starts at "I'll be coming home next year")
e|------------3-|
B|------------0-|
G|---0----0---0-|
D|--4-4--4-4--0-|
A|-3----5-----2-|
E|------------3-|


Chorus:

e|-3-3-3-3-3-3-3-3-3-33-3-33-3-33--3-3-3-3-3-3-3-3-3-3-33-3-33-3-33-|
B|-1-1-1-1-1-1-1-1-0-00-0-00-0-00--1-1-1-1-1-1-1-1-1-0-00-0-00-0-00-|
G|-0-0-0-0-0-0-0-0-0-00-0-00-0-00--0-0-0-0-0-0-0-0-0-0-00-0-00-0-00-|
D|-2-2-2-2-2-2-2-2-0-00-0-00-0-00--2-2-2-2-2-2-2-2-2-0-00-0-00-0-00-|
A|-3-3-3-3-3-3-3-3-2-22-2-22-2-22--3-3-3-3-3-3-3-3-3-2-22-2-22-2-22-|
E|-----------------3-33-3-33-3-33--------------------3-33-3-33-3-33-|
   Come on get on get on,           Take it till life runs out

e|-3-3-3-3-3-3-3-3-0-0-0-0-0-0-0-0-2------------|
B|-1-1-1-1-1-1-1-1-2-2-2-2-2-2-2-2-1------------|
G|-0-0-0-0-0-0-0-0-0-0-0-0-0-0-0-0-2-(let-ring)-|
D|-2-2-2-2-2-2-2-2-2-2-2-2-2-2-2-2-0------------|
A|-3-3-3-3-3-3-3-3-0-0-0-0-0-0-0-0--------------|
E|----------------------------------------------|
   No one can find us now,
Living with our heads underground


Bridge:

e|-0-0-0-0-0-0-0-0-3-3-3-3-3-3-3-3--0-0-0-0-0-0-0-0-3-3-3-3-3-3-3-3-|
B|-2-2-2-2-2-2-2-2-1-1-1-1-1-1-1-1--2-2-2-2-2-2-2-2-1-1-1-1-1-1-1-1-|
G|-0-0-0-0-0-0-0-0-0-0-0-0-0-0-0-0--0-0-0-0-0-0-0-0-0-0-0-0-0-0-0-0-|
D|-2-2-2-2-2-2-2-2-2-2-2-2-2-2-2-2--2-2-2-2-2-2-2-2-2-2-2-2-2-2-2-2-|
A|-0-0-0-0-0-0-0-0-3-3-3-3-3-3-3-3--0-0-0-0-0-0-0-0-3-3-3-3-3-3-3-3-|
E|------------------------------------------------------------------|
   Say good-bye...

e|-2-2-2-2-2-2-2-2-|
B|-1-1-1-1-1-1-1-1-|
G|-2-2-2-2-2-2-2-2-|
D|-0-0-0-0-0-0-0-0-|
A|-----------------|
E|-----------------|


Outro:

e|-10-10-10-1010-10-10-10-1010--10-10-10-1010--10-10-10-1010-|
B|--0--0--0--0-0--7--7--7--7-7---0--0--0--0-0---0--0--0--0-0-|
G|--0--0--0--0-0--0--0--0--0-0---0--0--0--0-0---0--0--0--0-0-|
D|--9--9--9--9-9--0--0--0--0-0---9--9--9--9-9---9--9--9--9-9-| (x6)
A|-10-10-10-1010--9--9--9--9-9--10-10-10-1010--10-10-10-1010-|
E|-----------------------------------------------------------|

e|-10------------|
B|--0------------|
G|--0-(let-ring)-|
D|--9------------|
A|-10------------|
E|---------------|

Order:

Intro/verse
Intro/verse
Chorus
Intro/verse 
Intro/verse
Chorus
Intro/Verse
Bridge
Intro/Verse (I'll be coming home next year 3 times)
Outro


Lyrics:

I'm in the sky tonight,
There I can keep by your side
Watching the wide world riot and hiding out
I'll be coming home next year
Into the sun we climb
Climbing our wings will burn white
Everyone strapped in tight
We'll ride it out
I'll be coming home next year
Come on get on get on
Take it till life runs out
No one can find us now,
Living with our heads underground
Into the night we shine
Lighting the way we glide by
Catch me if I get too high
When I come down
I'll be coming home next year
I'm in the sky tonight
There i can keep by your side
Watching the whole world wind around and round
I'll be coming home next year
I'll be coming home next year
Everything's alright up here
When I come down
I'll be coming home next year
Say good-bye
I'll be coming home next year


************************************
| x   Mute note
************************************
Tap to rate this tab
# A B C D E F G H I J K L M N O P Q R S T U V W X Y Z