Song name
# A B C D E F G H I J K L M N O P Q R S T U V W X Y Z

Foo Fighters - Pokey The Little Puppy tab

Tablatura de NICO M. (nicokbbl@hotmail.com)


Artista: Foo Fighters
Cancion: Pokey The Little Puppy
Album: ------ 




Riff 1
1||-----------------------------------------------------------------------||
2||-----------------------------------------------------------------------||
3||-----------------------------------------------------------------------||
4||-----------------------------------------------------------------------||
5||--7-7-7-7-7-7-7-7-7-7-7-7-7-7-7-7-7-3-3-3-3-3-3-3-3-3-3-3-3-3-3-3-3-3--||
6||--5-5-5-5-5-5-5-5-4-4-4-4-4-4-4-4-4-4-4-4-4-4-4-4-4-4-4-4-4-4-4-4-4-4--||


Riff 2
1||------------------------------||
2||------------------------------||
3||------------------------------||
4||--7-x-x-x-x-x---8-7-8--xxx-8--||
5||--7-x-x-x-x-x---8-7-8--xxx-8--||
6||--5-x-x-x-x-x---6-5-6--xxx-6--||


Riff 3
1||----------------------------------------------------------------------------||
2||----------------------------------------------------------------------------||
3||----------------------------------------------------------------------------||
4||--3---3-3-3---2-2-2--2-3-3-3--5-5-5-5--7---7-7-7---6-6-6--7-7-7-7--9-9-9-9--||
5||--3---3-3-3---2-2-2--2-3-3-3--5-5-5-5--7---7-7-7---6-6-6--7-7-7-7--9-9-9-9--||
6||--1---1-1-1---0-0-0--0-1-1-1--3-3-3-3--5---5-5-5---4-4-4--4-5-5-5--7-7-7-7--||
Tap to rate this tab
# A B C D E F G H I J K L M N O P Q R S T U V W X Y Z