Song name
# A B C D E F G H I J K L M N O P Q R S T U V W X Y Z

Foo Fighters - Im In Love With A German Film Star tab

----------------------------------------------------------------------------
	I'm in love with a german film star - Foo Fighters
----------------------------------------------------------------------------
Tabbed by: joeytaboss
Email: joeykramer1981@yahoo.co.uk

Tuning: eadgbe

Just the chords, three used throughout the song

e|--0-----0-----0----------------------------------------------------------|
B|--0-----0-----0----------------------------------------------------------|
G|--8-----4-----1----------------------------------------------------------|
D|--9-----5-----2----------------------------------------------------------|
A|--9-----5-----2----------------------------------------------------------|
E|--7-----3-----0----------------------------------------------------------|
Tap to rate this tab
# A B C D E F G H I J K L M N O P Q R S T U V W X Y Z