Song name
# A B C D E F G H I J K L M N O P Q R S T U V W X Y Z

Foo Fighters - What If I Do tab

Foo Fighters - What If I Do?

Artist: Foo Fighters
Album: In Your Honor
Genre: Rock

Tuning: eBGDAE

Intro/Verse
   Gtr. 1 (Acoustic)	 			(Play 6 Times)
e||------------------------------------8---8----8--------||
B||------------------------------------8---8--8-8--8-8---||
G||-----------0---------------0------0-0---0--0-0--0-0-0-||
D||---7---9-------7---9---7-------0--x-x---x--x------x---||
A||---8---8-------8-------8-------7--7-7---7--7------7---||
E||-8---8---8---8---8---8---8---8-8--8-8---8--8------8---||

Gtr. 2 (Electric Clean Tone) (Play once after Gtr. 1 has played for the 1st time)
e|--------------------------------------|
B|-----6-----8----10-------12--8--6--8--|
G|-----------------------------9--7--9--|
D|-5/7---7/9---10----10/12--------------|
A|--------------------------------------|
E|--------------------------------------|

Chorus
 Gtr. 1                                              (Play 2 Times)
e||-----6---6-------------|-----5----------5-----|-----4---4--------4-----
B||-----6---6----6----6---|-----5---5------5---5-|-----4-4-4--------4-----
G||-7-7-7---7----7----7-7-|-----5-5-5------5---5-|---5-5-5-5------5-5-----
D||-8-8---8-8--8-8-8--8-8-|-7-7---7-7--7-7-7-7-7-|-6-6---6-6--6-6-6---6-6//
A||-8-8---8-8--8---8--8-8-|-7-7---7-7--7-7---7-7-|-6-6---6-6--6-6-6---6-6//
E||-6-6---6-6--6---6----6-|-5-5---5-5--5-5---5-5-|-4-4-----4--4-4-4---4-4//

|--------8--------------8--------||
|-/8--8--8----8---8-----8--------||
|-/9--9-------9---9--9--9--9-----||
|-/10-10---10-10--10-10----10-10-||
|-/10-10---10-10--10-10----10-10-||
|-/8--8----8--8---8--8-----8--8--||

Gtr .2	(Play 2 Times)
e||----------|----------|----------|-----------||
B||-------6--|-------5--|-------4--|--------8--||
G||---7------|---5------|---5------|----9------||
D||-8--------|-7--------|-6--------|-10--------||
A||----------|----------|----------|-----------||
E||----------|----------|----------|-----------||

Gtr. 3 (Electric Clean Tone w/ Reverb)(Played Just Before First Bar Of Verse 2)
e|------------|
B|------------|
G|------------|
D|------------|
A|------------|
E|-8/////////-|










Verse 2

Gtr. 1 
   Gtr. 1 	 			               (Play 4 Times)
e||------------------------------------8---8----8--------||
B||------------------------------------8---8--8-8--8-8---||
G||-----------0---------------0------0-0---0--0-0--0-0-0-||
D||---7---9-------7---9---7-------0--x-x---x--x------x---||
A||---8---8-------8-------8-------7--7-7---7--7------7---||
E||-8---8---8---8---8---8---8---8-8--8-8---8--8------8---||



Gtr. 2 (Electric) (Play 4 Times)
e||--------------------------------------||
B||-----6-----8----10-------12--8--6--8--||
G||-----------------------------9--7--9--||
D||-5/7---7/9---10----10/12--------------||
A||--------------------------------------||
E||--------------------------------------||

Gtr. 3                  
e||-----------------|------------------|--------------------------|
B||-----------------|------------------|--------------------------|
G||-----------------|------------------|--------------------------|
D||-----------------|------------------|--------------------------|
A||-3-3-3-3-3-3-3-3-|-3-3-3-3-3-3-3////|//10-10-10-10-10-10-10-10-|
E||-1-1-1-1-1-1-1-1-|-1-1-1-1-1-1-1////|//8--8--8--8--8--8--8--8--|
             (Play 4 Times)   
-------------------------||
-------------------------||
-------------------------||
-------------------------||
-10-10-10-10-10-10-10\\\-||
-8--8--8--8--8--8--8-\\\-||





















Chorus

Gtr. 1	(Play 2 Times)
e||-----6---6-------------|-----5----------5-----|-----4---4--------4------
B||-----6---6----6----6---|-----5---5------5---5-|-----4-4-4--------4------
G||-7-7-7---7----7----7-7-|-----5-5-5------5---5-|---5-5-5-5------5-5------
D||-8-8---8-8--8-8-8--8-8-|-7-7---7-7--7-7-7-7-7-|-6-6---6-6--6-6-6---6-6//
A||-8-8---8-8--8---8--8-8-|-7-7---7-7--7-7---7-7-|-6-6---6-6--6-6-6---6-6//
E||-6-6---6-6--6---6----6-|-5-5---5-5--5-5---5-5-|-4-4-----4--4-4-4---4-4//

|--------8--------------8--------||
|-/8--8--8----8---8-----8--------||
|-/9--9-------9---9--9--9--9-----||
|-/10-10---10-10--10-10----10-10-||
|-/10-10---10-10--10-10----10-10-||
|-/8--8----8--8---8--8-----8--8--||

Gtr. 2	(Play 2 Times)
e||----------|----------|----------|-----------||
B||-------6--|-------5--|-------4--|--------8--||
G||---7------|---5------|---5------|----9------||
D||-8--------|-7--------|-6--------|-10--------||
A||----------|----------|----------|-----------||
E||----------|----------|----------|-----------||

Gtr. 3
e||-6~-------------|-----------------|-5~-------------|-----------------|
B||-6~-------------|-----------------|-5~-------------|-----------------|
G||-7~-------------|-----------------|-5~-------------|-----------------|
D||-8~-------------|-----------------|-7~-------------|-----------------|
A||-8~-8-8-8-8-8-8-|-8-8-8-8---8-8-8-|-7~-7-7-7-7-7-7-|-7-7-7-7-7-7-7-7-|
E||-6~-6-6-6-6-6-6-|-6-6-6-6---6-6-6-|-5~-5-5-5-5-5-5-|-5-5-5-5-5-5-5-5-|

-4~-------------|----------------|------------------------|
-4~-------------|----------------|------------------------|
-5~-------------|----------------|---9--------------------|
-6~-------------|----------------|---10-------------------|
-6~-6-6-6-6-6-6-|--6-6-6-6-6-6///|//-10-10-10-10-10-10-10-|
-4~-4-4-4-4-4-4-|--4-4-4-4-4-4///|//-8--8--8--8--8--8--8--|
             (Play 2 Times) 
-------------------------||
-------------------------||
-------------------------||
-------------------------||
-10-10-10-10-10-10-10-10-||
-8--8--8--8--8--8--8--8--||














Bridge

Gtr. 1	  (Play 2 Times)
e|-0---0--0---0--0--|-------0---0--0-\\|\\-----0------|------0----0//||
B|-0---0--0---0--0--|-------0---0--0-\\|\\-----0------|------0----0//||
G|-9---9--9---9--9--|-------9---9--9-\\|\\4--4-4----2-|----2-2--2-2//||
D|-10--10-10--10-10-|-10-10-10--10-10\\|\\5--5------3-|----3----3-3//||
A|-10--10-10--10-10-|-10-10-10--10-10\\|\\5--5----0-3-|--3-3----3-3//||
E|-8---8--8---8--8--|-8--8--8---8--8-\\|\\3--3----0-1-|--1-1----1-1//||

Gtr. 2	 (Play 2 Times)
e||-0--0--0--0--0--0--0--|-0--0--0----0---0--|-0--0--0--0--0---0--0--||
B||-12-12-12-12-12-12-12-|-12-12-12---12--12-|-12-12-12-12-12\\10-10-||
G||----------------------|-------------------|-----------------------||
D||----------------------|-------------------|-----------------------||
A||----------------------|-------------------|-----------------------||
E||----------------------|-------------------|-----------------------||

Guitar Solo
Gtr. 1 (Plays the same as verse’s 1 and 2)
Gtr. 3 (Plays the same as Verse 2)

Gtr. 2
e|-------------------------------------------3---5---5---3-|
B|-13-13br13-12-13-10-10br10-8-10\5-5br5-3-5---5---5---5-5-|
G|---------------------------------------------------------|
D|---------------------------------------------------------|
A|---------------------------------------------------------|
E|---------------------------------------------------------|

e|-------------------------------------------3---5---5---1--0-|
B|-13-13br13-12-13-10-10br10-8-10\5-5br5-3-5---5---5---5-3--1-|
G|------------------------------------------------------------|
D|------------------------------------------------------------|
A|------------------------------------------------------------|
E|------------------------------------------------------------|
 |                                                            |	
 |                                                            |
Gtr. 4 (electric)                                             |
 |                                                            |
 |                                                            |
e|------------------------------------------------------------|
B|-5-5br5-3-5-5-5br5-3-5-5-5br5-3---5---6---5-----------------|
G|--------------------------------5---5---5----5-5------------|
D|------------------------------------------------------------|
A|------------------------------------------------------------|
E|------------------------------------------------------------|














Chorus

Gtr. 1	(Play 2 Times)
e||-----6---6-------------|-----5----------5-----|-----4---4--------4------
B||-----6---6----6----6---|-----5---5------5---5-|-----4-4-4--------4------
G||-7-7-7---7----7----7-7-|-----5-5-5------5---5-|---5-5-5-5------5-5------
D||-8-8---8-8--8-8-8--8-8-|-7-7---7-7--7-7-7-7-7-|-6-6---6-6--6-6-6---6-6//
A||-8-8---8-8--8---8--8-8-|-7-7---7-7--7-7---7-7-|-6-6---6-6--6-6-6---6-6//
E||-6-6---6-6--6---6----6-|-5-5---5-5--5-5---5-5-|-4-4-----4--4-4-4---4-4//

|--------8--------------8--------||
|-/8--8--8----8---8-----8--------||
|-/9--9-------9---9--9--9--9-----||
|-/10-10---10-10--10-10----10-10-||
|-/10-10---10-10--10-10----10-10-||
|-/8--8----8--8---8--8-----8--8--||


Gtr. 2	(Play 2 Times)
e||----------|----------|----------|-----------||
B||-------6--|-------5--|-------4--|--------8--||
G||---7------|---5------|---5------|----9------||
D||-8--------|-7--------|-6--------|-10--------||
A||----------|----------|----------|-----------||
E||----------|----------|----------|-----------||

Gtr. 3
e||-6~-------------|-----------------|-5~-------------|-----------------|
B||-6~-------------|-----------------|-5~-------------|-----------------|
G||-7~-------------|-----------------|-5~-------------|-----------------|
D||-8~-------------|-----------------|-7~-------------|-----------------|
A||-8~-8-8-8-8-8-8-|-8-8-8-8---8-8-8-|-7~-7-7-7-7-7-7-|-7-7-7-7-7-7-7-7-|
E||-6~-6-6-6-6-6-6-|-6-6-6-6---6-6-6-|-5~-5-5-5-5-5-5-|-5-5-5-5-5-5-5-5-|

-4~-------------|----------------|------------------------|
-4~-------------|----------------|------------------------|
-5~-------------|----------------|---9--------------------|
-6~-------------|----------------|---10-------------------|
-6~-6-6-6-6-6-6-|--6-6-6-6-6-6///|//-10-10-10-10-10-10-10-|
-4~-4-4-4-4-4-4-|--4-4-4-4-4-4///|//-8--8--8--8--8--8--8--|
             (Play 2 Times) 
-------------------------||
-------------------------||
-------------------------||
-------------------------||
-10-10-10-10-10-10-10-10-||
-8--8--8--8--8--8--8--8--||














Bridge

Gtr. 1	  (Play 4 Times)
e||-0---0--0---0--0--|-------0---0--0-\\|\\-----0------|------0----0//||
B||-0---0--0---0--0--|-------0---0--0-\\|\\-----0------|------0----0//||
G||-9---9--9---9--9--|-------9---9--9-\\|\\4--4-4----2-|----2-2--2-2//||
D||-10--10-10--10-10-|-10-10-10--10-10\\|\\5--5------3-|----3----3-3//||
A||-10--10-10--10-10-|-10-10-10--10-10\\|\\5--5----0-3-|--3-3----3-3//||
E||-8---8--8---8--8--|-8--8--8---8--8-\\|\\3--3----0-1-|--1-1----1-1//||

 Gtr. 2	(Play 4 Times)
e||-0--0--0--0--0--0--0--|-0--0--0----0---0--|-0--0--0--0--0---0--0--||
B||-12-12-12-12-12-12-12-|-12-12-12---12--12-|-12-12-12-12-12\\10-10-||
G||----------------------|-------------------|-----------------------||
D||----------------------|-------------------|-----------------------||
A||----------------------|-------------------|-----------------------||
E||----------------------|-------------------|-----------------------||

End On 
Gtr. 1 
e|-0~--|
B|-0~--|
G|-2~--|
D|-3~--|
A|-3~--|
E|-1~--|

Gtr. 2
e|-0---|
B|-10--|
G|-----|
D|-----|
A|-----|
E|-----|
Tap to rate this tab
# A B C D E F G H I J K L M N O P Q R S T U V W X Y Z