Song name
# A B C D E F G H I J K L M N O P Q R S T U V W X Y Z

Foo Fighters - On The Mend tab

-------------------------------------------------------------------------------
			     ON THE MEND - FOO FIGHTERS
-------------------------------------------------------------------------------
Tabbed by: Barry Miles
Email: shoebox_of_lies@hotmail.com

Guitar 1:
e|---------2-----------4-----------|---------2-----------0-----------|
B|---0-----------0-----------0-----|---0-----------0-----------0-----|
G|-----3-----3-----3-----3-----3---|-----3-----3-----3-----3-----3---|
D|-4-----4-----4-----4-----4-----4-|-2-----2-----2-----2-----2-----2-|
A|---------------------------------|---------------------------------|
E|---------------------------------|---------------------------------|

Guitar 2:
e|-2---2-2-2---2-2---2-2-----2-2-2-|-0---0-0-0---0-0---0-0-----0-0-0-|
B|-2---2-2-2---2-2---2-2-----2-2-2-|-0---0-0-0---0-0---0-0-----0-0-0-|
G|-3---3-3-3---3-3---3-3-----3-3-3-|-1---1-1-1---1-1---1-1-----1-1-1-|
D|-4---4-4-4---4-4---4-4-----4-4-4-|-2---2-2-2---2-2---2-2-----2-2-2-|
A|-4---4-4-4---4-4---4-4-----4-4-4-|-2---2-2-2---2-2---2-2-----2-2-2-|
E|-2---2-2-2---2-2---2-2-----2-2-2-|-0---0-0-0---0-0---0-0-----0-0-0-|

Repeat twice, then add guitar 3:
e|---------6-----------7-----------|---------6-----------4-----------|
B|---------7-----------9-----------|---------7-----------5-----------|
G|---------------------------------|---------------------------------|
D|---------------------------------|---------------------------------|
A|---------------------------------|---------------------------------|
E|---------------------------------|---------------------------------|

e|---------6-----------9-----------|/11-11-7----/9------4------------|
B|---------7-----------11----------|/12-12-9----/11-----5------------|
G|---------------------------------|---------------------------------|
D|---------------------------------|---------------------------------|
A|---------------------------------|---------------------------------|
E|---------------------------------|---------------------------------|

All 3 guitars repeat this for the intro, verses, choruses, til the bridge:

Guitar 1:
e|---------6-----------6-----------|-6-----------6-----------6-------|
B|---0-----------0-----------0-----|-------0-----------0-----------0-|
G|-----4-----4-----4-----4-----4---|---4-----4-----4-----4-----4-----|
D|-6-----6-----6-----6-----6-----6-|-----6-----6-----6-----6-----6---|
A|---------------------------------|---------------------------------|
E|---------------------------------|---------------------------------|

e|---------5-----------5-----------|-5-----------5-------------------|
B|---0-----------0-----------0-----|-------0-------------------------|
G|-----4-----4-----4-----4-----4---|---4-----4-----------------------|
D|-5-----5-----5-----5-----5-----5-|-----5-----5---------------------|
A|---------------------------------|---------------------------------|
E|---------------------------------|---------------------------------|

Guitar 2:
e|-4-4-4-4-4-4-4-4-4-4-4-4-4-4-4-4-|-4-4-4-4-4-4-4-4-4-4-4-4-4-4-4-4-|
B|-4-4-4-4-4-4-4-4-4-4-4-4-4-4-4-4-|-4-4-4-4-4-4-4-4-4-4-4-4-4-4-4-4-|
G|-4-4-4-4-4-4-4-4-4-4-4-4-4-4-4-4-|-4-4-4-4-4-4-4-4-4-4-4-4-4-4-4-4-|
D|-6-6-6-6-6-6-6-6-6-6-6-6-6-6-6-6-|-6-6-6-6-6-6-6-6-6-6-6-6-6-6-6-6-|
A|-6-6-6-6-6-6-6-6-6-6-6-6-6-6-6-6-|-6-6-6-6-6-6-6-6-6-6-6-6-6-6-6-6-|
E|-4-4-4-4-4-4-4-4-4-4-4-4-4-4-4-4-|-4-4-4-4-4-4-4-4-4-4-4-4-4-4-4-4-|

e|-3-3-3-3-3-3-3-3-3-3-3-3-3-3-3-3-|-3-3-3-3-3-3-3-------------------|
B|-3-3-3-3-3-3-3-3-3-3-3-3-3-3-3-3-|-3-3-3-3-3-3-3-------------------|
G|-4-4-4-4-4-4-4-4-4-4-4-4-4-4-4-4-|-4-4-4-4-4-4-4-------------------|
D|-5-5-5-5-5-5-5-5-5-5-5-5-5-5-5-5-|-5-5-5-5-5-5-5-------------------|
A|-5-5-5-5-5-5-5-5-5-5-5-5-5-5-5-5-|-5-5-5-5-5-5-5-------------------|
E|-3-3-3-3-3-3-3-3-3-3-3-3-3-3-3-3-|-3-3-3-3-3-3-3-------------------|

Guitar 3:
e|---------9---------9-------------|-9-----------9-----------9-------|
B|---------11--------11------------|-11----------11----------11------|
G|---------------------------------|---------------------------------|
D|---------------------------------|---------------------------------|
A|---------------------------------|---------------------------------|
E|---------------------------------|---------------------------------|

e|---------10--------10------------|-10----------10------------------|
B|---------10--------10------------|-10----------10------------------|
G|---------------------------------|---------------------------------|
D|---------------------------------|---------------------------------|
A|---------------------------------|---------------------------------|
E|---------------------------------|---------------------------------|

Then there's another verse, chorus, play the bridge again, a little interlude where you 
the first part, then finally the outro; guitar 1 and 2 play the same thing, where guitar 
plays this:

e|---------------------------------|---------------------------------|
B|---------------------------------|---------------------------------|
G|-3-4-3-4-6---6-8-6---6-8-9-8-6\4-|-6-4-3-4-3-1-3-1---1-------------|
D|---------------------------------|-----------------4---4-2-4-2-1-2-|
A|---------------------------------|---------------------------------|
E|---------------------------------|---------------------------------|

e|---------------------------------|---------------------------------|
B|---------------------------------|---------------------------------|
G|---------------------------------|---------------------------------|
D|-4---4/6-6---6/8-8---8/9-9---9/11|11\9-9\8-8\6-6/11-11\9-9\8-8\6-6-|
A|---------------------------------|---------------------------------|
E|---------------------------------|---------------------------------|

Then Guitar 4 jumps in, 3 repeats same thing, 4 plays:
e|---------6---9-7-6---6-7-9-7-6---|---------------------------------|
B|-7-9-7-9-----------------------9-|11-9-7-9-7-5-7-5-4-5-4-----------|
G|---------------------------------|-----------------------6-8-6-4-6-|
D|---------------------------------|---------------------------------|
A|---------------------------------|---------------------------------|
E|---------------------------------|---------------------------------|

e|---------------------------------|---------------------------------|
B|---------------------------------|---------------------------------|
G|-3---3/4-4---4/6-6---6/8-8---8/9-|-9\8-8\6-6\4-4/9-9\8-8\6-6\4-4---|
D|---------------------------------|---------------------------------|
A|---------------------------------|---------------------------------|
E|---------------------------------|---------------------------------|

Repeat that til fade out.

| /  slide up
| \  slide down
| h  hammer-on
| p  pull-off
| ~  vibrato
| +  harmonic
| x  Mute note
===============================================================================
Tap to rate this tab
# A B C D E F G H I J K L M N O P Q R S T U V W X Y Z