Song name
# A B C D E F G H I J K L M N O P Q R S T U V W X Y Z

Foo Fighters - Cold Day In The Sun tab

-------------------------------------------------------------------------------
			     Cold Day in the Sun - Foo Fighters
-------------------------------------------------------------------------------
Tabbed by: Jordan Elek
Email: burnincheez@aim.com

Tuning: Standard


This song has an awkward strum pattern, so I added the strum direction above each
chord. It isn't perfect, but it's close enough. (Chord names and progressions in
parentheses.)


Intro
 
e||------3-----3-----3---3-3-3---||
B||------3-----3-----3---3-3-3---||
G||------0-----0-----0---0-0-0---||  x2
D||----0-----0-----0-----0-0-0---||
A||--3---------------------------||
E||--------2-----3---------------||

                                                   d  udu  udu  udu
e||------3-----3-----3------3-3-3-------3-----3----3--333--333--333-||
B||------3-----3-----3------3-3-3-------3-----3----3--333--333--333-||
G||------0-----0-----0------0-0-0-------0-----0----0--000--000--000-|| 
D||----0-----0-----0-----3--3-3-0-----0-----0------0--000--000--000-||
A||--3------------------------------3--------------x--xxx--xxx--xxx-||
E||--------2-----3------------------------2-----3--3--333--333--333-||



Verse ( Cadd9  G/F#  G5 x2,  Cadd9  G/F#  G5  F*  Cadd9  G/F#  G5 )

     d u d u   u d u   u d  d u d u
e||--3-3-3-3---3-3-3---3-3--3-3-3-3-||
B||--3-3-3-3---3-3-3---3-3--3-3-3-3-||
G||--0-0-0-0---0-0-0---0-0--0-0-0-0-|| x2
D||--2-2-2-0---0-0-0---0-0--0-0-0-0-||
A||--3-3-3-x---x-x-x---x-x--x-x-x-x-||
E||--------2---2-2-3---3-3--3-3-3-3-||


     d u d u   u d u   u d u   u d u d u d u   u d u   u d u
e||--3-3-3-3---3-3-3---3-3-3---3-3-3-3-3-3-3---3-3-3---3-3-3-||
B||--3-3-3-3---3-3-3---3-3-3---3-3-3-3-3-3-3---3-3-3---3-3-3-||
G||--0-0-0-0---0-0-0---0-0-0---0-0-0-0-0-0-0---0-0-0---0-0-0-||
D||--2-2-2-0---0-0-0---0-0-3---3-3-0-2-2-2-0---0-0-0---0-0-0-||
A||--3-3-3-x---x-x-x---x-x-x---x-x---3-3-3-x---x-x-x---x-x-x-||
E||--------2---2-2-3---3-3-1---1-1---------2---2-2-3---3-3-3-||



Chorus  ( Am  D  x2 )
        
     d   d     u d u   u d     u d u   u       u d u   u   u   u            
e||--0---0-----0-0-0---0-0-----0-0-2---2-------2-2-3---2---0---2-||
B||--1---1-----1-1-1---1-1-----1-1-3---3-------3-3-3---3---3---3-||
G||--2---2-----2-2-2---2-2-----2-2-2---2-------2-2-2---2---2---2-||x2
D||--2---2-----2-2-2---2-2-----2-2-0---0-------0-0-0---0---0---0-||
A||--0---0-----0-0-0---0-0-----0-0-------------------------------||
E||-----------------|--------------------------------------------||



Bridge (same strum pattern as chorus) ( G  Am  Em  D  x2 )
             
e||--3--0--0--2-||
B||--3--1--0--3-||
G||--0--2--0--2-|| x2
D||--0--2--2--0-||
A||--2--0--2----||
E||--3-----0----||


Bridge 2 (immediately after Bridge 1, leading into the solo) ( Cadd9  D )

     d   d     u d u   u d u d u d u
e||--3---3-----3-3-2---2-2-2-2-2-2-2-||
B||--3---3-----3-3-3---3-3-3-3-3-3-3-||
G||--0---0-----0-0-2---2-2-2-2-2-2-2-||
D||--2---2-----2-2-0-----------------||
A||--3---3-----3-3-------------------||
E||----------------------------------||



Solo 

e||-----------------------------------------------||
B||-----------------------------------------------||
G||-----------------------------------------------||
D||------5-5~-7bp5---5~--7-5-7-9-7-5---5-5-4-2-0--||
A||--5s7-----------7-----------------7------------||
E||-----------------------------------------------||

e||-----------------------------------------------||
B||-----------------------------------------------||
G||------7---9-7---7~-9b-9-7-9-7--7-4-5-4-0-------||
D||--7/9---9-----9--------------------------------||
A||-----------------------------------------------||
E||-----------------------------------------------||


Chords used:


   Cadd9   G/F#    G5     F*     Am     D      G      Em
 
e|---3------3------3------3------0------2------3------0-----|
B|---3------3------3------3------1------3------3------0-----|
G|---0------0------0------0------2------2------0------0-----|
D|---2------0------0------3------2------0------0------2-----|
A|---3------x------x------x------0-------------2------2-----|
E|----------2------3------1--------------------3------0-----|

| /  slide up
| \  slide down
| h  hammer-on
| p  pull-off
| ~  vibrato
| +  harmonic
| x  Mute note
===============================================================================
Tap to rate this tab
# A B C D E F G H I J K L M N O P Q R S T U V W X Y Z