Song name
# A B C D E F G H I J K L M N O P Q R S T U V W X Y Z

Foo Fighters - Enough Space tab

Standard Tuning

|--3--| Trick: move toggle switch back and forth
|--3--| really fast simultaniously.
|--0--|
|--0--|
|-----|
|-----|

|------------------| Play this part 4x before going
|--3-3-3--3/5--5-5-| into the next part
|--0-0-0-------0-0-|
|--5-5-4-------5-5-|
|------------------|
|------------------|

|-----------------|
|-----------------| Repeat 4x
|-----5/6---------|
|--5--5/6-5/7-7-7-|
|--5--3/4-5/7-7-7-|
|--3------3/5-5-5-|

|------------------| Play this part 4x before going
|--3-3-3--3/5--5-5-| into the next part
|--0-0-0-------0-0-|
|--5-5-4-------5-5-|
|------------------|
|------------------|

|----------|------|------|------|----|
|----------|------|------|------|----|
|----------|------|------|------|----|
|--4-4-2-4-|-7~~~-|------|-7~~~-|----|
|--4-4-2-4-|------|-5~~~-|------|----|
|--2-2-0-2-|------|------|------|--/-|

|-----------------------------------------------------|
|-----------------------------------------------------|
|-----------------------------------------------------|
|-7-7-7-7-7-9~~~-7-7-7-7-7-9~~~-7-7-7-7-7-9-7-9b~~~---|
|-----------------------------------------------------|
|-----------------------------------------------------|

|-----------------|
|-----------------| 
|-----5/6---------|
|--5--5/6-5/7-7-7-|
|--5--3/4-5/7-7-7-|
|--3------3/5-5-5-|

|------------------| 
|--3-3-3--3/5--5-5-| Play this until
|--0-0-0-------0-0-| the end of the song
|--5-5-4-------5-5-|
|------------------|
|------------------|

/-slide
~-vibrato
b-bend
Tap to rate this tab
# A B C D E F G H I J K L M N O P Q R S T U V W X Y Z