Song name
# A B C D E F G H I J K L M N O P Q R S T U V W X Y Z

Foo Fighters - Everlong tab

om iron_eagle@geocities.com Mon Oct 27 10:12:43 1997
Date: Sun, 26 Oct 1997 17:57:04 -0800 (PST)
To: guitar@olga.net
Subject: TAB: Foo Fighters - Everlong


Here is the TAB for the song, Everlong by Foo Fighters.  It is complete
within the guidelines (I hope).  It's easy to understand and it has lyrics.


Everlong by Foo Fighters
Transcribed by Masaru Shimizu (iron_eagle@geocities.com)

This is my first time tabbing so bear with me.  You should listen to the
actual song while playing, so you get the little things right.  I not sure
about any of this stuff except that it sounds like the song.  If you have
any corrections, PLEASE e-mail me.  I want to learn to play this song right
too.  The tuning should be normal.

Intro  Clean  (I'm not sure about this)
e|-------------------------------------------------------------------------
B|-------------------------------------------------------------------------
G|-------------------------------------------------------------------------
D|-4-4--4-4-4-4---4-4---4-4-4-4-4----------4-4---4-4-4-4-4-4-4-------------
A|--------------2-----2-------------5-5--2-----2---------------------------
E|--------------------------------3----------------------------------------

Distortion
 --------------------------------------------------------|
 --------------------------------------------------------|
 ----11---------11-2-4-------4-----------4-4-4-4-4-4-4-4-|
 ----11---------11-2-4-------4-4-5-------4-4-4-4-4-4-4-4-|
 ----9----------9--0-2-------2-4-5-------2-2-2-2-2-2-2-2-|
 ------------------------------2-3-----------------------|

 Bridge x7

Bridge
e|----------------------------|
B|----------------------------|
G|-9--9--9--9--9--9--9-11-9-7-|
D|-9--9--9--9--9--9--9-11-9-7-|
A|-7--7--7--7--7--7--7-9--7-5-|
E|----------------------------|

Chorus
e|-------------------------------------------------------------------------
B|-------------------------------------------------------------------------
G|-4-4-4-4-4-4-4-4-4-4-4-4-4-4-4-4-4-4-4-4-4-4-4-4-4-4-4-4-4-4-4-4---------
D|-4-4-4-4-4-4-4-4-4-4-4-4-4-4-4-4-4-4-4-4-4-4-4-4-4-4-4-4-4-4-4-4---------
A|-2-2-2-2-0-0-0-0-0-0-0-0-0-0-0-0-2-2-2-2-2-2-2-2-2-2-2-2-2-2-2-2---------
E|-------------------------------------------------------------------------
1. He ---- llo                I've waited here for you
2. To ---- night              I    throw my self into
3. Co---me down               And  waste away with me
4. Sl---ow how                You  wanted it to be
5. Breathe out                  So I can breathe you in
6. And---- now                   I know you've always been

 ------------------------------------------------------|
 ------------------------------------------------------|
 ----------------------4-4-4-4-4-4-4-4-4-4-4-4-4-4-4-4-|
 ----4-5-5-5-5-5-5-5-5-4-4-4-4-4-4-4-4-4-4-4-4-4-4-4-4-|
 ----4-5-5-5-5-5-5-5-5-2-2-2-2-2-2-2-2-2-2-2-2-2-2-2-2-|
 ----2-3-3-3-3-3-3-3-3---------------------------------|
1.                 e---ver---long                       Course 2
2.      And out of the red, out of her head she sang    Bridge x4, Course 3
3.                Down with me                          Course 4
4.         I'm over my head, out of her head she sang   Riff 1->3, Verse
                                                        Bridge x3, Course 5
5.                hold you in                           Course 6
6.     And out of your head, out of my head I sang      Riff 1->3, Verse
                                                        Intro 1st line,
                                                        Bridge (no dist.) x3
                                                        Riff 1, verse

Riff
e|-------------------------------------------|
B|-------------------------------------------|
G|-------------------------------------------|
D|-------------------------------------------|
A|-4-4-4-5-5-5-7-7-7-9-9-9-9-10-9-7~~~~~-----|
E|-------------------------------------------|
1.                                   And
2. I     wonder                     When I sing
3. along with you

Verse
e|-------------------------------------------------------------------------
B|-------------------------------------------------------------------------
G|-------------4-4-4-4-4-4-4-----------------7--7--7-7-7-7--7-7--7-7-7-----
D|-------------4-4-4-4-4-4-4--5--5-5--5-5-5--7--7--7-7-7-7--7-7--7-7-7-----
A|-------------2-2-2-2-2-2-2--5--5-5--5-5-5--5--5--5-5-5-5--5-5--5-5-5-----
E|----------------------------3--3-3--3-3-3--------------------------------
     If everything could ever feel this real forever
   

  -------------------------------------------------------------------------
  -------------------------------------------------------------------------
  -------------4-4-4-4-4-4-4-----------------7--7--7-7-7-7--7-7--7-7-7-----
  -------------4-4-4-4-4-4-4--5--5-5--5-5-5--7--7--7-7-7-7--7-7--7-7-7-----
  -------------2-2-2-2-2-2-2--5--5-5--5-5-5--5--5--5-5-5-5--5-5--5-5-5-----
  ----------------------------3--3-3--3-3-3--------------------------------
       If anything could ever be this good   again

 --------------------------------------------------------------------------
 --------------------------------------------------------------------------
 ------------4-4-4-4-4-4-4-----------------7--7--7-7-----------------------
 ------------4-4-4-4-4-4-4--5--5-5--5-5-5--7--7--7-7--7--7-7--7-7-7--------
 ------------2-2-2-2-2-2-2--5--5-5--5-5-5--5--5--5-5--7--7-7--7-7-7--------
 ---------------------------3--3-3--3-3-3-------------5--5-5--5-5-5--------
   The only thing I'll ever ask of you        You've got to promise not to 
                                                      stop when I say 

 -------------------------------|
 -------------------------------|
 -------------------------------|
 ---5-5-5--5-5-5--5-5-5--5-5-5--|
 ---5-5-5--5-5-5--5-5-5--5-5-5--|
 ---3-3-3--3-3-3--3-3-3--3-3-3--|
    when                 She sang
Tap to rate this tab
 
# A B C D E F G H I J K L M N O P Q R S T U V W X Y Z