Song name
# A B C D E F G H I J K L M N O P Q R S T U V W X Y Z

Foo Fighters - How I Miss You tab

Band:   Foo Fighters
Song:   How I Miss You
Tabber: Ruairi Coleman

Tuning: Db,A,D,G,B,e

This is a class wee b-side fun to play too. There's only one other verson of this song 
seen, its good but im sure its played with the E tuned to D flat. Anyways enjoy, please 
and comment any mistakes :D

 e|-------------------------------------------------------------|
 B|-------------------------------------------------------------|
 G|---10-------10-------10-/--12----------12----------12--\-----|x4 no lyrics then x3 
lyrics
 D|-------------------------------------------------------------|
 A|---8--8--8--8--8--8--8-----10--10--10--10--10--10--10--------|
Db|---0--0--0--0--0--0--0--/--0---0---0---0---0---0---0---\-----|
           How i miss you x3


 e|-------------------------------------------------------|
 B|-------------------------------------------------------|
 G|---10-------10-------10----10-------10-------10----\---|
 D|-------------------------------------------------------|
 A|---8--8--8--8--8--8--8--8--8--8--8--8--8--8--8--8--\---|
Db|---0--0--0--0--0--0--0--0--0--0--0--0--0--0--0--0------|
      I should never call


 e|----------------------------------------------------|
 B|----------------------------------------------------|
 G|---9--9--9--9--9--9--9--9--9--9--9--9--9--9--9--/---|
 D|----------------------------------------------------|
 A|---7--7--7--7--7--7--7--7--7--7--7--7--7--7--7--/---|
Db|---0--0--0--0--0--0--0--0--0--0--0--0--0--0--0------|
     how i hope that you still miss me


 e|-------------------------------------------------------------|
 B|-------------------------------------------------------------|
 G|---10-------10-------10-/--12----------12----------12--\-----|x4 no lyrics then x3 
lyrics
 D|-------------------------------------------------------------|
 A|---8--8--8--8--8--8--8-----10--10--10--10--10--10--10--------|
Db|---0--0--0--0--0--0--0--/--0---0---0---0---0---0---0---\-----|
           Did i lose you x3


 e|-------------------------------------------------------|
 B|-------------------------------------------------------|
 G|---10-------10-------10----10-------10-------10----\---|
 D|-------------------------------------------------------|
 A|---8--8--8--8--8--8--8--8--8--8--8--8--8--8--8--8--\---|
Db|---0--0--0--0--0--0--0--0--0--0--0--0--0--0--0--0------|
      Some Where down the line


 e|----------------------------------------------------|
 B|----------------------------------------------------|
 G|---9--9--9--9--9--9--9--9--9--9--9--9--9--9--9--/---|
 D|----------------------------------------------------|
 A|---7--7--7--7--7--7--7--7--7--7--7--7--7--7--7--/---|
Db|---0--0--0--0--0--0--0--0--0--0--0--0--0--0--0------|
     Hide and seeks alright if i find


 e|-------------------------------------------------------------|
 B|-------------------------------------------------------------|
 G|---10-------10-------10-/--12----------12----------12--\-----|x4 no lyrics then x3 
lyrics
 D|-------------------------------------------------------------|
 A|---8--8--8--8--8--8--8-----10--10--10--10--10--10--10--------|
Db|---0--0--0--0--0--0--0--/--0---0---0---0---0---0---0---\-----|
           Do you miss me
	   Like I miss you
	   If You miss me


 e|-------------------------------------------------------|
 B|-------------------------------------------------------|
 G|---10-------10-------10----10-------10-------10----\---|
 D|-------------------------------------------------------|
 A|---8--8--8--8--8--8--8--8--8--8--8--8--8--8--8--8--\---|
Db|---0--0--0--0--0--0--0--0--0--0--0--0--0--0--0--0------|
      Never go away


 e|----------------------------------------------------|
 B|----------------------------------------------------|
 G|---9--9--9--9--9--9--9--9--9--9--9--9--9--9--9--/---|
 D|----------------------------------------------------|
 A|---7--7--7--7--7--7--7--7--7--7--7--7--7--7--7--/---|
Db|---0--0--0--0--0--0--0--0--0--0--0--0--0--0--0------|
      hopefully you'll come and stay some________


 e|-------------------------------------------------------------|
 B|-------------------------------------------------------------|
 G|---10-------10-------10-/--12----------12----------12--\-----|x2
 D|-------------------------------------------------------------|
 A|---8--8--8--8--8--8--8-----10--10--10--10--10--10--10--------|
Db|---0--0--0--0--0--0--0--/--0---0---0---0---0---0---0---\-----|
     __day

 e|----------------------------------------------------------------|
 B|----------------------------------------------------------------|
 G|---6-6-6-6-6-6-6-6-/-9-9-9-9-9-9-9-9--10-10-10-10-10-10-10-10---|
 D|---4-4-4-4-4-4-4-4-/-7-7-7-7-7-7-7-7----------------------------|
 A|---4-4-4-4-4-4-4-4-/-7-7-7-7-7-7-7-7--8--8--8--8--8--8--8--8----|
Db|---5-5-5-5-5-5-5-5-/-8-8-8-8-8-8-8-8--0--0--0--0--0--0--0--0----|
              If Your   leaving          come back soon
            Thats not   easy             to say
               I will   wait here        dream of you


 e|----------------------------------------------------------------|
 B|----------------------------------------------------------------|
 G|---6-6-6-6-6-6-6-6---9-9-9-9-9-9-9-9--4~------------------------|
 D|---4-4-4-4-4-4-4-4-/-7-7-7-7-7-7-7-7--2~------------------------|
 A|---4-4-4-4-4-4-4-4-/-7-7-7-7-7-7-7-7--2~------------------------|
Db|---5-5-5-5-5-5-5-5-/-8-8-8-8-8-8-8-8--3~------------------------|
           all  alone   as       i    ache

Distorsion Kicks in

 e|-------------------------------------------------------|
 B|-------------------------------------------------------|
 G|---10-10-10-10-10-10-10-/--12-12-12-12-12-12-12--\-----|x2 no lyrics then x3 with lyrics
 D|-------------------------------------------------------|
 A|---8--8--8--8--8--8--8-----10-10-10-10-10-10-10--------|
Db|---0--0--0--0--0--0--0--/--0--0--0--0--0--0--0---\-----|
           Did i lose you x3


 e|-------------------------------------------------------|
 B|-------------------------------------------------------|
 G|---10-10-10-10-10-10-10-10-10-10-10-10-10-10-10-10-\---|
 D|-------------------------------------------------------|
 A|---8--8--8--8--8--8--8--8--8--8--8--8--8--8--8--8--\---|
Db|---0--0--0--0--0--0--0--0--0--0--0--0--0--0--0--0------|
      Some Where down the line


 e|----------------------------------------------------|
 B|----------------------------------------------------|
 G|---9--9--9--9--9--9--9--9--9--9--9--9--9--9--9--/---|
 D|----------------------------------------------------|
 A|---7--7--7--7--7--7--7--7--7--7--7--7--7--7--7--/---|
Db|---0--0--0--0--0--0--0--0--0--0--0--0--0--0--0------|
     Hide and seeks alright if i find


 e|-------------------------------------------------------|
 B|-------------------------------------------------------|
 G|---10-10-10-10-10-10-10-/--12-12-12-12-12-12-12--\-----|x2 no lyrics then x3 with lyrics
 D|-------------------------------------------------------|
 A|---8--8--8--8--8--8--8-----10-10-10-10-10-10-10--------|
Db|---0--0--0--0--0--0--0--/--0--0--0--0--0--0--0---\-----|
           Do you miss me
	   Like I miss you
	   If You miss me


 e|-------------------------------------------------------|
 B|-------------------------------------------------------|
 G|---10-10-10-10-10-10-10-10-10-10-10-10-10-10-10-10-\---|
 D|-------------------------------------------------------|
 A|---8--8--8--8--8--8--8--8--8--8--8--8--8--8--8--8--\---|
Db|---0--0--0--0--0--0--0--0--0--0--0--0--0--0--0--0------|
      Never go away


 e|----------------------------------------------------|
 B|----------------------------------------------------|
 G|---9--9--9--9--9--9--9--9--9--9--9--9--9--9--9--/---|
 D|---7--7--7--7--7--7--7--7--7--7--7--7--7--7--7------|
 A|---7--7--7--7--7--7--7--7--7--7--7--7--7--7--7--/---|
Db|---8--8--8--8--8--8--8--8--8--8--8--8--8--8--8------|
      hopefully you'll come and stay some________


 e|--------------------------------------------------|
 B|--------------------------------------------------|
 G|---10-10-10-10-10-10-10-10-10-10-10-10-10-10-10---|
 D|--------------------------------------------------|
 A|---8--8--8--8--8--8--8--8--8--8--8--8--8--8--8----|
Db|---0--0--0--0--0--0--0--0--0--0--0--0--0--0--0----|
    ___day

 e|----------------------------------------------------------------|
 B|----------------------------------------------------------------|
 G|---6-6-6-6-6-6-6-6-/-9-9-9-9-9-9-9-9--10-10-10-10-10-10-10-10---|
 D|---4-4-4-4-4-4-4-4-/-7-7-7-7-7-7-7-7----------------------------|
 A|---4-4-4-4-4-4-4-4-/-7-7-7-7-7-7-7-7--8--8--8--8--8--8--8--8----|
Db|---5-5-5-5-5-5-5-5-/-8-8-8-8-8-8-8-8--0--0--0--0--0--0--0--0----|
              If Your   leaving          come back soon
            Thats not   easy             to say
               I will   wait here        dream of you


 e|----------------------------------------------------------------|
 B|----------------------------------------------------------------|
 G|---6-6-6-6-6-6-6-6---9-9-9-9-9-9-9-9--4~------------------------|
 D|---4-4-4-4-4-4-4-4-/-7-7-7-7-7-7-7-7--2~------------------------|
 A|---4-4-4-4-4-4-4-4-/-7-7-7-7-7-7-7-7--2~------------------------|
Db|---5-5-5-5-5-5-5-5-/-8-8-8-8-8-8-8-8--3~------------------------|
           all  alone   as       i    ache


Guitar Clean
 e|-------------------------------------------------------------|
 B|-------------------------------------------------------------|
 G|---10-------10-------10-/--12----------12----------12--\-----|x4 no lyrics then x3 
lyrics
 D|-------------------------------------------------------------|
 A|---8--8--8--8--8--8--8-----10--10--10--10--10--10--10--------|
Db|---0--0--0--0--0--0--0--/--0---0---0---0---0---0---0---\-----|
           How i miss you x3


 e|-------------------------------------------------------|
 B|-------------------------------------------------------|
 G|---10-------10-------10----10-------10-------10----\---|
 D|-------------------------------------------------------|
 A|---8--8--8--8--8--8--8--8--8--8--8--8--8--8--8--8--\---|
Db|---0--0--0--0--0--0--0--0--0--0--0--0--0--0--0--0------|
      I should never call


 e|-------------------------------------------------------|
 B|-------------------------------------------------------|
 G|---9--9--9--9--9--9--9--9--9--9--9--9--9--9--9--/--10--|
 D|-------------------------------------------------------|
 A|---7--7--7--7--7--7--7--7--7--7--7--7--7--7--7--/--8---|
Db|---0--0--0--0--0--0--0--0--0--0--0--0--0--0--0---------|
      how i hope that you still miss me
Tap to rate this tab
# A B C D E F G H I J K L M N O P Q R S T U V W X Y Z