Song name
# A B C D E F G H I J K L M N O P Q R S T U V W X Y Z

Foo Fighters - Sister Europe tab

Intro:

I dont know how many times they play it..But listen to the song.
E|----------------|----------------|----------------|----------------||
B|----------------|----------------|----------------|----------------||
G|-----0-----0----|-----0-----0----|-----0-----0----|-----0-----0----||
D|---3-----3---3--|---3-----3---3--|---3-----3---3--|---3-----3---3--||
A|-4-----4--------|-4-----4--------|-4-----4--------|-4-----4--------||
E|----------------|----------------|----------------|----------------|| 

Verse:

E|----------------|----------------|----------------|----------------||
B|----------------|----------------|----------------|----------------||
G|-----0-----0----|-----0-----0----|-----0-----0----|-----0-----0----||
D|---3-----3---3--|---3-----3---3--|---2-----2---2--|---2-----2---2--||
A|-4-----4--------|-4-----4--------|-3-----3--------|-3-----3--------||
E|----------------|----------------|----------------|----------------||



chorus:
E|-------------------------------2*-------------------------------||
B|-----------------------------3*---------------------------------||
G|-----------12/2------------2------------------------------------||
D|---1\12---------------------------------------------------------||
A|----------------------------------------------------------------||
E|----------------------------------------------------------------||

* Echo

Enjoy  
Tap to rate this tab
 
# A B C D E F G H I J K L M N O P Q R S T U V W X Y Z