Song name
# A B C D E F G H I J K L M N O P Q R S T U V W X Y Z

Foo Fighters - My Poor Brain tab

Foo Fighters - My Poor Brain

Album: 1997 - The Colour And The Shape
Instrument: Guitar
Tuning: eBGDAE

Tab By BabyGrohl

Intro/Verse
(Gtr. 1)
     C#                 C#sus              F#    
e||--9--9--9--9--9--9---9--9--9--9--9--9---9--9--9--9--9--9--||
B||--9--9--9--9--9--9---9--9--9--9--9--9---11s12-12s11p9--9--||
G||--10-10-10-10-10-10--11-11-11-11-11-11--11-11-11-11-11-11-||
D||--11-11-11-11-11-11--11-11-11-11-11-11--9--9--9--9--9--9--||
A||--11-11-11-11-11-11--9--9--9--9--9--9---9--9--9--9--9--9--||
E||--9--9--9--9--9--9---9--9--9--9--9--9---9--9--9--9--9--9--||

(Gtr. 2)
     C#
e||--9---||
B||------||
G||------||
D||--11--||
A||------||
E||------||


Chorus
e||----------------------------------|
B||----------------------------------|
G||--6-6-6-6---4-4---4-4-4-4---9-7-6-|
D||--6-6-6-6---4-4---4-4-4-4---9-7-6-|
A||--4-4-4-4---2-2---2-2-2-2---7-6-4-|
E||----------------------------------|

e|----------------------------------||
B|----------------------------------||
G|-6-6-6-6---4-4---4-4-4-4----------||
D|-6-6-6-6---4-4---4-4-4-4---5-4-2--||
A|-4-4-4-4---2-2---2-2-2-2---5-4-2--||
E|---------------------------3-2-0--||


Interlude
e||---------------------------------|
B||---------------------------------|
G||---------------------------------|
D||-6-6-6-6-6-6-6-6-9-9-9-9-9-9-9-9-|
A||-6-6-6-6-6-6-6-6-9-9-9-9-9-9-9-9-|
E||-4-4-4-4-4-4-4-4-7-7-7-7-7-7-7-7-|

e|-----------------------------------||
B|-----------------------------------||
G|-----4-----4--6------4------4-5-6--||
D|--------------6-------------4-5-6--||
A|-4-4---4-4----4--4-4---4-4--2-3-4--||
E|-----------------------------------||


Solo
      C#             F#             F# 
e||---------------|--------------|-----------||
B||--/-9--9--9--9-|-/11-11-11-11-|-\7-7-7-7--||
G||--/10-10-10-10-|-/11-11-11-11-|-\8-8-8-8--||
D||---------------|--------------|-----------||
A||---------------|--------------|-----------||
E||---------------|--------------|-----------||


Outro
(Gtr. 1)
e||------------------------------------||
B||------------------------------------||
G||-----4-----4--6------4-------4-5-6--||
D||--------------6--------------4-5-6--||
A||-4-4---4-4----4--4-4---4-4---2-3-4--||
E||------------------------------------||

(Gtr. 2)
Play the intro part of the guitar 2 with distortion.



* Lyrics *

Real life is so hard
We hide in the stars

That's where our heads are
My head and your heart

This is a blackout
Don't let it go to waste
This is a blackout
I want to detonate

When you are so far
I'm falling apart

Lose all my sonar
You jam my radar

Sometimes I feel I'm getting stuck
Between the handshake and the Fuck

You've got me on guard
I've got my head and your heart
The same in the stars

Sometimes I wish that I could change
I can save you from My Poor Brain
OK


_____________________
http://www.fftabs.com
Tap to rate this tab
 
# A B C D E F G H I J K L M N O P Q R S T U V W X Y Z