Song name
# A B C D E F G H I J K L M N O P Q R S T U V W X Y Z

Foo Fighters - Oh George tab

Song: Oh George
Artist: Foo Fighters
Album: Foo Fighters

Chorded by Hai Malichi.


verse 1:

Am              B7        F                 C     Em
The train that I got onto up and left that town

Am       F#7            G
Threw it up as it went down

Am      B7                F                C      Em
Strange enough it left me rude and turned around

Am         F#7                 G
Watched as they all took their vows

chorus:

F          E       F                   Am
Fools were drawing trying to save that day

F       E           D
I don't doubt that anyway

Verse 2:

Am       B7            F            C       Em
Phase it out until the older ones return

Am     F#m               G
Have a seat and watch it burn

Am     B7               F                  C       Em
Trace around the corner this is what I've learned

Am     F#m           G
Always waited for my turn


Solo:

Am  F  Am  C
Am  F  C  G
x2

F  E   x2    F  G  D

Solo:
e|---------------------------------------------------------------------|
b|---------------------------------------------------------------------|
g|14 12-------------------------------------------14-14-14-14-14-14-12-|
d|------13 12 10-12-10-------------------------------------------------|
a|---------------------12-10-12-12-12-12-12-12-10----------------------|
E|---------------------------------------------------------------------|

e|-------------------------------------------------|
b|13-13-13-13-13-13-12-----------------------------|
g|---------------------14-12>>>12-12-12>>14--------|
d|-------------------------------------------------|
a|-------------------------------------------------|
E|-------------------------------------------------|
Repeat

e|--13--13--13--13---12--12--12--12---13--13--13--13---12--12--12--12-|
b|13--13--13--13---12--12--12--12---13--13--13--13---12--12--12--12---|
g|--------------------------------------------------------------------|
d|--------------------------------------------------------------------|
a|--------------------------------------------------------------------|
E|--------------------------------------------------------------------|

e|--13--13--13--13-15-15-15-15-14-14-14-14-14-|
b|13--13--13--13------------------------------|
g|--------------------------------------------|
d|--------------------------------------------|
a|--------------------------------------------|
E|--------------------------------------------|
Tap to rate this tab
 
# A B C D E F G H I J K L M N O P Q R S T U V W X Y Z