Song name
# A B C D E F G H I J K L M N O P Q R S T U V W X Y Z

Foo Fighters - X-static tab

Intro (Normal Tuning)
About 90bpm

(gtr. 1)
e|--------------------|
B|--------------------|
G|-----9-9-9-9-9-9-9--|
D|-----9-9-9-9-9-9-9--|
A|-^6--7-7-7-7-7-7-7--|
E|--------------------|

(Gtr. 2)
e|-------------------------------------------------------------------|
B|-------------------------------------------------------------------|
G|-------------------------------------------------------------------|
D|-2-2-2-2-2-2-2-2-2-2-2-2-2-2-2-------------------------------------|
A|-2-2-2-2-2-2-1-0-0-0-0-0-0-0-2-5-5-5-5-5-5-5-4-4-4-4-4-4-3-2-2-2-2-|
E|-------------------------------3-3-3-3-3-3-4-5-5-5-5-5-5-4-3-3-3-3-|

e|-------------------------------------------|
B|-------------------------------------------|
G|-------------------------------------------|
D|-------------------------------------------|
A|-2-2-2-5-1-1-1-1-1-1-1-2-2-2-2-2-2-2-2-2-2-|
E|-3-3-3-4-2-2-2-2-2-2-3-4-4-4-4-4-4-4-4-4-4-|


Chorus
e|------------------------------------------------------------------------|
B|------------------------------------------------------------------------|
G|---------1---1-----------1-------------------------2--2--2--------2-----|
D|-----2-----------2---2-------------2-2-2-2-2-2-----2--2--2-----2------2-|
A|-4---------------2----------1------1-1-1-1-1-1--5--------5--4---------3-|
E|--------------------------------2--2-2-2-2-2-2--------------------------|

And thats it!

Any questions to woodyman_999@hotmail.com

Woody
Tap to rate this tab
# A B C D E F G H I J K L M N O P Q R S T U V W X Y Z