Song name
# A B C D E F G H I J K L M N O P Q R S T U V W X Y Z

Foo Fighters - Mountain Of You tab

Foo Fighters - Mountain of You

Tabber: Ian Grohl (Wiggy1013@hotmail.com)


Intro/Verse (Clean)

The picking is something like this, there are possible variations,
listen to the rhythm, it could be lighty strummed picked if you know what I mean.

    B                                 G
e|--------------------------2------------------------------3---------|
B|------4---------4---------4---4P0------3--------3--------3---3P0---|
G|---------4---------4----------------------0--------0---------------|
D|---4--------4---------4-------------0--------0--------0------------|
A|-------------------------------------------------------------------|
E|-------------------------------------------------------------------|


Pre-Chorus (Distortion)
   E              G5
e|--------0--0--------0-0-------------------------------|
B|--------0--0--------0-0-------------------------------|
G|---1~---1--1--1-----0-0-------------(x4)--------------|
D|---2~---2--2--2--5--5-5--5----------------------------|
A|---2~---2--2--2--5--5-5--5----------------------------|
E|---0----------0--3--3-3--3----------------------------|


Chorus (Mountain of you part - Distortion)
  A#  F5     D5
e|-------------------------------------------------|
B|-------------------------------------------------|
G|----------7~--7--7--7--------(x5 I think)--------|
D|--8~--3~--7~--7--7--7----------------------------|
A|--8~--3~--5~--5--5--5----------------------------|
E|--6~--1~-----------------------------------------|


Solo - Distortion (It's a weird solo, bend/pull the string down...pretty fast)
e|-----------------------------------------------------------------------|
B|-----------------------------------------------------------------------|
G|-----------------------------------------------------------------------|
D|-----------------------------------------------------------------------|
A|--/12b r12-12b r12 12b r12 12b-r12-12b r12-12b-r12-12b-r12--12b r12\\--|
E|-----------------------------------------------------------------------|

e|-----------------------------------------------------------------------|
B|-----------------------------------------------------------------------|
G|-----------------------------------------------------------------------|
D|-----------------------------------------------------------------------|
A|--\\5b-r5-5b-r5-5b-r5-5b-r5-5b-r5-5b-r5-5b-r5-5b-r5/-------------------|
E|-----------------------------------------------------------------------|

e|-----------------------------------------------------------------------|
B|-----------------------------------------------------------------------|
G|-----------------------------------------------------------------------|
D|-----------------------------------------------------------------------|
A|--/7b-r7-7b-r7-7b-r7-7b-r7-7b-r7-7b-r7-7b-r7-7b-r7\\-------------------|
E|-----------------------------------------------------------------------|

e|-----------------------------------------------------------------------|
B|-----------------------------------------------------------------------|
G|-----------------------------------------------------------------------|
D|-----------------------------------------------------------------------|
A|--\\5b-r5-5b-r5-5b-r5-5b-r5(slowy while playing the string)------------|
E|-----------------------------------------------------------------------|


Outro
e|----------------------------------------------------------------------|
B|--------------------------------------Ending on-----------------------|
G|--------------7-7------------------------7----------------------------|
D|--8-8---3-3---7-7---7-7------------------7----------------------------|
A|--8-8---3-3---5-5---7-7-------(x2)-------5----------------------------|
E|--6-6---1-1---------5-5-----------------------------------------------|

Cant Take any credit for this one really, as you can see i didnt tab it,
just thought it had to put on here, such an awesome song!
Tap to rate this tab
 
# A B C D E F G H I J K L M N O P Q R S T U V W X Y Z