Song name
# A B C D E F G H I J K L M N O P Q R S T U V W X Y Z

Foo Fighters - Breakout Acoustic tab

Foo Fighters - Breakout (acoustic)
(Normal Tuning)


Intro
     B           E5         C#5           C5
e||--0-----------0-----------0------------0---||
B||--0-----------0-----------0------------0---||
G||--8-----------9-----------10-----------9---|| (2x)
D||--9-----------9-----------11-----------10--||
A||--9-----------7-----------11-----------10--||
E||--7-----------7-----------9------------8---||
You make me dizzy, running circles in my head
One of these days I'll chase you down

     B          E5        C#5              C5
e||--0-0-0-0-0--0-0-0-0-0--0--0--0--0--0---0--0--0--0--0---||
B||--0-0-0-0-0--0-0-0-0-0--0--0--0--0--0---0--0--0--0--0---||
G||--8-8-8-8-8--9-9-9-9-9--10-10-10-10-10--9--9--9--9--9---|| (2x)
D||--9-9-9-9-9--9-9-9-9-9--11-11-11-11-11--10-10-10-10-10--||
A||--9-9-9-9-9--7-7-7-7-7--11-11-11-11-11--10-10-10-10-10--||
E||--7-7-7-7-7--7-7-7-7-7--9--9--9--9--9---8--8--8--8--8---||
Well look whose going crazy now, we're face to face my friend
Better get ou-ou-out, better get out


Chorus
     B5  G   B5  E   G  A Em7 A  G
e||--0---3---0---0-|-3--3--3--3--3--||
B||--0---3---0---0-|-3--3--3--3--3--||
G||--4---0---4---1-|-0--2--0--2--0--|| (2x)
D||--4---0---4---2-|-0--2--2--2--0--||
A||--2---2---2---2-|-2--0--2--0--2--||
E||------3-------0-|-3-----0-----3--||
                   (2x)
You know you make me break out, make me break out
I don't want to look like that
I don't want to look like that
You know you make me break out, make me break out
I don't want to look like that
I don't want to look like that, you know you make me break out


Bridge 1
   Gtr. 1
     B5                G
e||--0-0-0-0-0-0-0-0---3-3-3-3-3-3--||
B||--0-0-0-0-0-0-0-0---3-3-3-3-3-3--||
G||--4-4-4-4-4-4-4-4---0-0-0-0-0-0--||
D||--4-4-4-4-4-4-4-4---0-0-0-0-0-0--||
A||--2-2-2-2-2-2-2-2---2-2-2-2-2-2--||
E||--------------------3-3-3-3-3-3--||
   Gtr. 2
e||--0-0-0-0-0-0-0-0-|----------------||
B||--0-0-0-0-0-0-0-0-|----------------||
G||--8-8-8-8-8-8-8-8-|-11-11\12/11-9--||
D||--9-9-9-9-9-9-9-9-|-x--x-\x-/x--x--||
A||--9-9-9-9-9-9-9-9-|-9--9-\10/9--7--||
E||--7-7-7-7-7-7-7-7-|----------------||
You can see this on my face, It's all for you 
The more and more I take, I break right through

     G5          E5
e||--0-0-0-0-0-0-0-0-0-0-0--||
B||--0-0-0-0-0-0-0-0-0-0-0--||
G||--4-4-4-4-4-4-1-1-1-1-1--||
D||--5-5-5-5-5-5-2-2-2-2-2--||
A||--5-5-5-5-5-5-2-2-2-2-2--||
E||--3-3-3-3-3-3-0-0-0-0-0--||
Therapy still scares me,
Putting me on my back again


     B       E5     C#5       C5
e||--0-------0-------0--------0---||
B||--0-------0-------0--------0---||
G||--8-------9-------10-------9---|| (2x)
D||--9-------9-------11-------10--||
A||--9-------7-------11-------10--||
E||--7-------7-------9--------8---||
I may be crazy, little frayed around the ends
One of these days I'll phase you out

     B          E5        C#5              C5
e||--0-0-0-0-0--0-0-0-0-0--0--0--0--0--0---0--0--0--0--0---||
B||--0-0-0-0-0--0-0-0-0-0--0--0--0--0--0---0--0--0--0--0---||
G||--8-8-8-8-8--9-9-9-9-9--10-10-10-10-10--9--9--9--9--9---|| (2x)
D||--9-9-9-9-9--9-9-9-9-9--11-11-11-11-11--10-10-10-10-10--||
A||--9-9-9-9-9--7-7-7-7-7--11-11-11-11-11--10-10-10-10-10--||
E||--7-7-7-7-7--7-7-7-7-7--9--9--9--9--9---8--8--8--8--8---||
Burn it in the blast off
Burn it in the blast off
Watching me crawl away
Try to get out, try to get out


Bridge 2 (Coda)
     B5  A5  C#5 E5
e||--0-0-0-0-0-0-0-0--||
B||--0-0-0-0-0-0-0-0--||
G||--4-4-2-2-6-6-9-9--||
D||--4-4-2-2-6-6-9-9--||
A||--2-2-0-0-4-4-7-7--||
E||-------------------||
Break out! Break out!
Go, go, go!

Make me break out..
Yeah!

Tap to rate this tab
 
# A B C D E F G H I J K L M N O P Q R S T U V W X Y Z