Song name
# A B C D E F G H I J K L M N O P Q R S T U V W X Y Z

Foo Fighters - Learn To Fly Acoustic tab

Help us improve GuitareTab! Take a short survey!
Foo Fighters - Learn To Fly (acoustic)
(Normal Tuning)


Intro/Verse
     Bsus2       F#m         E
e||--2-2-2-2-2-2-0-0-0-0-0-0-0-0-0-0-0-0-0-0-0-0-0-0--||
B||--2-2-2-2-2-2-0-0-0-0-0-0-0-0-0-0-0-0-0-0-0-0-0-0--||
G||--4-4-4-4-4-4-2-2-2-2-2-2-1-1-1-1-1-1-1-1-1-1-1-1--||
D||--4-4-4-4-4-4-4-4-4-4-4-4-2-2-2-2-2-2-2-2-2-2-2-2--||
A||--2-2-2-2-2-2-4-4-4-4-4-4-2-2-2-2-2-2-2-2-2-2-2-2--||
E||--------------------------0-0-0-0-0-0-0-0-0-0-0-0--||


Chorus
     Bsus2       F#m         E                         G         A         E
e||--2-2-2-2-2-2-0-0-0-0-0-0-0-0-0-0-0-0-0-0-0-0-0-0-|-0-0-0-0-0-0-0-0-0-0-*--||
B||--2-2-2-2-2-2-0-0-0-0-0-0-0-0-0-0-0-0-0-0-0-0-0-0-|-0-0-0-0-0-0-0-0-0-0-*--||
G||--4-4-4-4-4-4-2-2-2-2-2-2-1-1-1-1-1-1-1-1-1-1-1-1-|-4-4-4-4-4-6-6-6-6-6-*--||
D||--4-4-4-4-4-4-4-4-4-4-4-4-2-2-2-2-2-2-2-2-2-2-2-2-|-5-5-5-5-5-7-7-7-7-7-*--||
A||--2-2-2-2-2-2-4-4-4-4-4-4-2-2-2-2-2-2-2-2-2-2-2-2-|-5-5-5-5-5-7-5-5-5-5-*--||
E||--------------------------0-0-0-0-0-0-0-0-0-0-0-0-|-3-3-3-3-3-5-5-5-5-5-*--||
*(Add a E major 7 times, after the second chorus).


Bridge
     B            G          D          E
e||--0-0-0-0-0-0--0-0-0-0-0--0-0-0-0-0--0-0-0-0-0-0-0--||
B||--0-0-0-0-0-0--0-0-0-0-0--0-0-0-0-0--0-0-0-0-0-0-0--||
G||--4-4-4-4-4-4--4-4-4-4-4--7-7-7-7-7--1-1-1-1-1-1-1--||
D||--4-4-4-4-4-4--5-5-5-5-5--7-7-7-7-7--2-2-2-2-2-2-2--||
A||--2-2-2-2-2-2--5-5-5-5-5--5-5-5-5-5--2-2-2-2-2-2-2--||
E||---------------3-3-3-3-3-------------0-0-0-0-0-0-0--||
    "Fly along with me, i can't quite make it alone."

     G               A
e||--0-0-0-0-0-0-0-0/0-0-0-0-0-0-0-0--||
B||--0-0-0-0-0-0-0-0/0-0-0-0-0-0-0-0--||
G||--4-4-4-4-4-4-4-4/6-6-6-6-6-6-6-6--||
D||--5-5-5-5-5-5-5-5/7-7-7-7-7-7-7-7--||
A||--5-5-5-5-5-5-5-5/7-7-7-7-7-7-7-7--||
E||--3-3-3-3-3-3-3-3/5-5-5-5-5-5-5-5--||
    "Try and make this life my own."


Outro
e||--2-2-2-2-2-2-2-|-------2--||
B||--2-2-2-2-2-2-2-|----4--2--||
G||--4-4-4-4-4-4-4-|-4--4--4--||
D||--4-4-4-4-4-4-4-|-4--2--4--||
A||--2-2-2---------|-2-----2--||
E||----------------|----------||
  (4x)

Related for Learn To Fly Acoustic tab