Song name
# A B C D E F G H I J K L M N O P Q R S T U V W X Y Z

Foo Fighters - Ffl tab

---------------------------------@
Band: Foo Fighters               |
Song: FFL                        |
Album: Five Songs and a Cover EP |
Length: 2:29                     |
Tuning: Standard (EADGBe)        |
---------------------------------@
                                 |
            Tabbed By            |
                                 |
    Matt Wall | Matt-Wall.com    |
            (iammatty)           |
                                 |
---------------------------------@


The bits surrounded in the square brackets (IE [5-7-7-7]) are parts where
you have to pick the strings quickly to get the right sound but it doesn't
indicate the amount of times you have to pick... I can't count that quickly!

You'll have to listen to the track a few times to be get the timing right, 
it's a bit tricky to get.

The Lyrics are also listed at the bottom.

/ - Slide Up
\ - Slide Down


Intro
e|-----------------------------------------------------------------------|
B|-----------------------------------------------------------------------| x3
G|---------------------------7-------------------------------------------|
D|--9-9-9-9-9-7--9-9-9-9-9-7-7-------------------------------------------|
A|--9-9-9-9-9-7--9-9-9-9-9-7-5-------------------------------------------|
E|--7-7-7-7-7-5--7-7-7-7-7-5---------------------------------------------|


Chorus
e|-----------------------------------------------------------------------|
B|-----------------------------------------------------------------------|
G|--------------------------------------------------[7-7-7-10-10-10]-----|
D|--9-9-9-9-9-7-9-9-9-9-9-7-9-9-9-9-9-7-9-9-9-9-9-7-[7-7-7-10-10-10]-----|
A|--9-9-9-9-9-7-9-9-9-9-9-7-9-9-9-9-9-7-9-9-9-9-9-7-[5-5-5-8--8--8-]-----|
E|--7-7-7-7-7-5-7-7-7-7-7-5-7-7-7-7-7-5-7-7-7-7-7-5----------------------|

e|-----------------------------------------------------------------------|
B|-----------------------------------------------------------------------|
G|--------------------------[7-7-7-5-5-5-7-7-7-9-9-9-]-------------------|
D|--9-9-9-9-9-7-9-9-9-9-9-7-[7-7-7-5-5-5-7-7-7-9-9-9-]-------------------|
A|--9-9-9-9-9-7-9-9-9-9-9-7-[5-5-5-3-3-3-5-5-5-7-7-7-]-------------------|
E|--7-7-7-7-7-5-7-7-7-7-7-5----------------------------------------------|

e|-----------------------------------------------------------------------|
B|-----------------------------------------------------------------------|
G|--------------------------[7-7-7-10-10-10]-----------------------------|
D|--9-9-9-9-9-7-9-9-9-9-9-7-[7-7-7-10-10-10]-----------------------------|
A|--9-9-9-9-9-7-9-9-9-9-9-7-[5-5-5-8--8--8-]-----------------------------|
E|--7-7-7-7-7-5-7-7-7-7-7-5----------------------------------------------|

e|-----------------------------------------------------------------------|
B|-----------------------------------------------------------------------|
G|--------------------------[7-7-7-5-5-5-7-7-7-9-9-9-]-------------------|
D|--9-9-9-9-9-7-9-9-9-9-9-7-[7-7-7-5-5-5-7-7-7-9-9-9-]-------------------|
A|--9-9-9-9-9-7-9-9-9-9-9-7-[5-5-5-3-3-3-5-5-5-7-7-7-]-------------------|
E|--7-7-7-7-7-5-7-7-7-7-7-5----------------------------------------------|


Verse
e|-----------------------------------------------------------------------|
B|-----------------------------------------------------------------------|
G|------------------------------------------------[7-7-7-10-10-10/]------|
D|--9-9-9-9-9-7-9-9-9-9-9-7-9-9-9-9-9-7-9-9-9-9-9-[7-7-7-10-10-10/]------|
A|--9-9-9-9-9-7-9-9-9-9-9-7-9-9-9-9-9-7-9-9-9-9-9-[5-5-5-8--8--8-/]------|
E|--7-7-7-7-7-5-7-7-7-7-7-5-7-7-7-7-7-5-7-7-7-7-7------------------------|

e|-----------------------------------------------------------------------|
B|-----------------------------------------------------------------------|
G|--------------------------[7-7-7-5-5-5]--------------------------------|
D|--9-9-9-9-9-7-9-9-9-9-9-7-[7-7-7-5-5-5]--------------------------------|
A|--9-9-9-9-9-7-9-9-9-9-9-7-[5-5-5-3-3-3]--------------------------------|
E|--7-7-7-7-7-5-7-7-7-7-7-5----------------------------------------------|

e|-----------------------------------------------------------------------|
B|-----------------------------------------------------------------------|
G|--------------------------[7-7-7-10-10-10/]----------------------------|
D|--9-9-9-9-9-7-9-9-9-9-9-7-[7-7-7-10-10-10/]----------------------------|
A|--9-9-9-9-9-7-9-9-9-9-9-7-[5-5-5-8--8--8-/]----------------------------|
E|--7-7-7-7-7-5-7-7-7-7-7-5----------------------------------------------|


Chorus
e|-----------------------------------------------------------------------|
B|-----------------------------------------------------------------------|
G|--------------------------------------------------[7-7-7-10-10-10]-----|
D|--9-9-9-9-9-7-9-9-9-9-9-7-9-9-9-9-9-7-9-9-9-9-9-7-[7-7-7-10-10-10]-----|
A|--9-9-9-9-9-7-9-9-9-9-9-7-9-9-9-9-9-7-9-9-9-9-9-7-[5-5-5-8--8--8-]-----|
E|--7-7-7-7-7-5-7-7-7-7-7-5-7-7-7-7-7-5-7-7-7-7-7-5----------------------|

e|-----------------------------------------------------------------------|
B|-----------------------------------------------------------------------|
G|--------------------------[7-7-7-5-5-5-7-7-7-9-9-9-]-------------------|
D|--9-9-9-9-9-7-9-9-9-9-9-7-[7-7-7-5-5-5-7-7-7-9-9-9-]-------------------|
A|--9-9-9-9-9-7-9-9-9-9-9-7-[5-5-5-3-3-3-5-5-5-7-7-7-]-------------------|
E|--7-7-7-7-7-5-7-7-7-7-7-5----------------------------------------------|

e|-----------------------------------------------------------------------|
B|-----------------------------------------------------------------------|
G|--------------------------[7-7-7-10-10-10]-----------------------------|
D|--9-9-9-9-9-7-9-9-9-9-9-7-[7-7-7-10-10-10]-----------------------------|
A|--9-9-9-9-9-7-9-9-9-9-9-7-[5-5-5-8--8--8-]-----------------------------|
E|--7-7-7-7-7-5-7-7-7-7-7-5----------------------------------------------|

e|-----------------------------------------------------------------------|
B|-----------------------------------------------------------------------|
G|--------------------------[7-7-7-5-5-5-7-7-7-9-9-9-]-------------------|
D|--9-9-9-9-9-7-9-9-9-9-9-7-[7-7-7-5-5-5-7-7-7-9-9-9-]-------------------|
A|--9-9-9-9-9-7-9-9-9-9-9-7-[5-5-5-3-3-3-5-5-5-7-7-7-]-------------------|
E|--7-7-7-7-7-5-7-7-7-7-7-5----------------------------------------------|


Verse
e|-----------------------------------------------------------------------|
B|-----------------------------------------------------------------------|
G|-----------------------------------------------------------------------|
D|--9-9-9-9-9-7-9-9-9-9-9-7-9-9-9-9-9-7-9-9-9-9-9-7----------------------|
A|--9-9-9-9-9-7-9-9-9-9-9-7-9-9-9-9-9-7-9-9-9-9-9-7--2-------------------|
E|--7-7-7-7-7-5-7-7-7-7-7-5-7-7-7-7-7-5-7-7-7-7-7-5----------------------|

e|-----------------------------------------------------------------------|
B|-----------------------------------------------------------------------|
G|-----------------------------------------------------------------------|
D|--------------------------------------------------------------12-------|
A|--5-3---8---8----5-8---8---8----5-3---8---8----5-8---8---8----12-------|
E|------7---7----------7---7----------7---7----------7---7------10-------|

e|-----------------------------------------------------------------------|
B|-----------------------------------------------------------------------|
G|--------------------------7--------------------------------------------|
D|--9-9-9-9-9-7-9-9-9-9-9-7-7--------------------------------------------|
A|--9-9-9-9-9-7-9-9-9-9-9-7-5--------------------------------------------|
E|--7-7-7-7-7-5-7-7-7-7-7-5----------------------------------------------|

e|-----------------------------------------------------------------------|
B|-----------------------------------------------------------------------|
G|--------------------------7/14\7---------------------------------------|
D|--9-9-9-9-9-7-9-9-9-9-9-7-7/14\7---------------------------------------|
A|--9-9-9-9-9-7-9-9-9-9-9-7-5/12\5---------------------------------------|
E|--7-7-7-7-7-5-7-7-7-7-7-5----------------------------------------------|


Chorus
e|-----------------------------------------------------------------------|
B|-----------------------------------------------------------------------|
G|--------------------------------------------------[7-7-7-10-10-10/]----|
D|--9-9-9-9-9-7-9-9-9-9-9-7-9-9-9-9-9-7-9-9-9-9-9-7-[7-7-7-10-10-10/]----|
A|--9-9-9-9-9-7-9-9-9-9-9-7-9-9-9-9-9-7-9-9-9-9-9-7-[5-5-5-8--8--8-/]----|
E|--7-7-7-7-7-5-7-7-7-7-7-5-7-7-7-7-7-5-7-7-7-7-7-5----------------------|

e|-----------------------------------------------------------------------|
B|-----------------------------------------------------------------------|
G|--------------------------[7-7-7-5-5-5-7-7-7-9-9-9-]-------------------|
D|--9-9-9-9-9-7-9-9-9-9-9-7-[7-7-7-5-5-5-7-7-7-9-9-9-]-------------------|
A|--9-9-9-9-9-7-9-9-9-9-9-7-[5-5-5-3-3-3-5-5-5-7-7-7-]-------------------|
E|--7-7-7-7-7-5-7-7-7-7-7-5----------------------------------------------|

e|-----------------------------------------------------------------------|
B|-----------------------------------------------------------------------|
G|--------------------------[7-7-7-10-10-10/]----------------------------|
D|--9-9-9-9-9-7-9-9-9-9-9-7-[7-7-7-10-10-10/]----------------------------|
A|--9-9-9-9-9-7-9-9-9-9-9-7-[5-5-5-8--8--8-/]----------------------------|
E|--7-7-7-7-7-5-7-7-7-7-7-5----------------------------------------------|

e|-----------------------------------------------------------------------|
B|-----------------------------------------------------------------------|
G|--------------------------[7-7-7-5-5-5-7-7-7-9-9-9-]-------------------|
D|--9-9-9-9-9-7-9-9-9-9-9-7-[7-7-7-5-5-5-7-7-7-9-9-9-]-------------------|
A|--9-9-9-9-9-7-9-9-9-9-9-7-[5-5-5-3-3-3-5-5-5-7-7-7-]-------------------|
E|--7-7-7-7-7-5-7-7-7-7-7-5----------------------------------------------|


Outro
e|-----------------------------------------------------------------------|
B|-----------------------------------------------------------------------| x4
G|---------------------------7-------------------------------------------|
D|--9-9-9-9-9-7--9-9-9-9-9-7-7-------------------------------------------|
A|--9-9-9-9-9-7--9-9-9-9-9-7-5-------------------------------------------|
E|--7-7-7-7-7-5--7-7-7-7-7-5---------------------------------------------|


---------------------------------@
Lyrics                           |
---------------------------------@

Ready, Aim, Fire.

No one fuckin' around standin in the line,
You gotta feel it right between the eyes,
Time is runnin' out,
Time to do it right,
Now.

My Oh My,
Everything's gonna be fine.

My Oh My,
Fat Fucking Lie.

Let yourself go,
Let me test your fate,
Make your head roll,
Make your legs shake,
Dance to the sound of heartache.

My Oh My,
Everything's gonna be fine.

My Oh My,
Fat Fucking Lie.

Ooooohhhhhhah!

Fat fucking Lie,
Get on your bikes and ride.

My Oh My,
Everythings gonna be fine.

My Oh My,
Fat Fucking Lie.

Fat. Fucking. Lie.

Tap to rate this tab
# A B C D E F G H I J K L M N O P Q R S T U V W X Y Z