Song name
# A B C D E F G H I J K L M N O P Q R S T U V W X Y Z

Foo Fighters - Disenchanted Lullaby Acoustic tab

Help us improve GuitareTab! Take a short survey!
Foo Fighters - Disenchanted Lullaby (acoustic)
(Normal Tuning)


Intro
e|------2--|
B|-----0---|
G|----2----|
D|---x-----|
A|--2------|
E|---------|

e|------------2-------------------2-----------------|
B|----------0---0---------------0----0--------------|
G|-------2--------2-----------2--------2------------|
D|--------------------------------------------------|
A|----2------------------0-2------------------------|
E|--------------------------------------------------|

e|------------2-------------------2-----------------|
B|----------0---0---------------0----0--------------|
G|-------2--------2-----------2--------2------------|
D|--------------------------------------------------|
A|--0-2------------------0-2------------------------|
E|--------------------------------------------------|

e|------------2-------------------2-----------------|
B|----------0---0---------------0----0--------------|
G|-------2--------2-----------2--------2------------|
D|--------------------------------------------------|
A|--0-2------------------0-2------------------------|
E|--------------------------------------------------|

    E        D
e|----0-0-0--2-2-2-2-2--|
B|----0-0-0--3-3-3-3-3--|
G|--1-1-1-1--2-2-2-2-2--|
D|--2-2-2-2--0-0-0-0-0--|
A|--2-2-2-2-------------|
E|--0-0-0-0-------------|


Verse
e|--2-2-2-2-2-2-2-2-2-2-2-2--2-2-2-2-2-2-2-2-2-2-2-2--2-2-2-2-2-2-2-2-2-2-2-2--|
B|--0-0-0-0-0-0-0-0-0-0-0-0--0-0-0-0-0-0-0-0-0-0-0-0--0-0-0-0-0-0-0-0-0-0-0-0--|
G|--2-2-2-2-2-2-2-2-2-2-2-2--2-2-2-2-2-2-2-2-2-2-2-2--2-2-2-2-2-2-2-2-2-2-2-2--|
D|--x-x-x-x-x-x-x-x-x-x-x-x--x-x-x-x-x-x-x-x-x-x-x-x--x-x-x-x-x-x-x-x-x-x-x-x--|
A|--2-2-2-2-2-2-2-2-2-2-2-2--2-2-2-2-2-2-2-2-2-2-2-2--2-2-2-2-2-2-2-2-2-2-2-2--|
E|-----------------------------------------------------------------------------|

    E          D
e|----0-0-0-0--2-2-2-2-2-2-2--|--------------2-------------------2-----------------|
B|----0-0-0-0--3-3-3-3-3-3-3--|------------0---0---------------0----0--------------|
G|--1-1-1-1-1--2-2-2-2-2-2-2--|---------2--------2-----------2--------2------------|
D|--2-2-2-2-2--0-0-0-0-0-0-0--|----------------------------------------------------|
A|--2-2-2-2-2-----------------|--0-1-2------------------0-2--------------0-2-------|
E|--0-0-0-0-0-----------------|----------------------------------------------------|

e|--2-2-2-2-2-2-2-2-2-2-2-2--2-2-2-2-2-2-2-2-2-2-2-2--2-2-2-2-2-2-2-2-2-2-2-2--|
B|--0-0-0-0-0-0-0-0-0-0-0-0--0-0-0-0-0-0-0-0-0-0-0-0--0-0-0-0-0-0-0-0-0-0-0-0--|
G|--2-2-2-2-2-2-2-2-2-2-2-2--2-2-2-2-2-2-2-2-2-2-2-2--2-2-2-2-2-2-2-2-2-2-2-2--|
D|--x-x-x-x-x-x-x-x-x-x-x-x--x-x-x-x-x-x-x-x-x-x-x-x--x-x-x-x-x-x-x-x-x-x-x-x--|
A|--2-2-2-2-2-2-2-2-2-2-2-2--2-2-2-2-2-2-2-2-2-2-2-2--2-2-2-2-2-2-2-2-2-2-2-2--|
E|-----------------------------------------------------------------------------|


Chorus
e|-----------2--2--2-2----2-2-2-2-------------------|
B|-----------0--0--0-0----0-0-0-0-------------------|
G|-----------2--2--2-2----2-2-2-2-----repeat--------|
D|-----------x--x--x-x----x-x-x-x------a--few-------|
A|--0-1-1-2--2--2--2-2----2-2-2-2--------times------|
E|--------------------------------------------------|

           E             D 
e|------------0--0--0----2--2--2--2--2--------------|
B|------------0--0--0----3--3--3--3--3--------------|
G|---------1--1--1--1----2--2--2--2--2--------------|
D|---------2--2--2--2----0--0--0--0--0--------------|
A|--0-1-1--2--2--2--2-------------------------------|
E|---------0--0--0--0-------------------------------|
 ...like I do


Interlude
e|--------------------------------------------------|
B|--------------------------------------------------|
G|---------------7-------------------7--------------| (3 times)
D|--9-9-9----2---7-------9-9-9----2--7--------------|
A|--9-9-9----2---5-------9-9-9----2--5--------------|
E|--7-7-7----0------5-6--7-7-7----0-----5-6---------|


Outro
    E               D 
e|-----0-0--0-0-0---2-2-2-2-2-2--|
B|-----0-0--0-0-0---3-3-3-3-3-3--|
G|--1--1-1--1-1-1---2-2-2-2-2-2--| (3 times)
D|--2--2-2--2-2-2---0-0-0-0-0-0--|
A|--2--2-2--2-2-2----------------|
E|--0--0-0--0-0-0----------------|
...like I do

e|--2-2-2-2--2-2-2-2--|
B|--0-0-0-0--0-0-0-0--|
G|--2-2-2-2--2-2-2-2--|
D|--x-x-x-x--x-x-x-x--|
A|--2-2-2-2--2-2-2-2--|
E|--------------------|
Related for Disenchanted Lullaby Acoustic tab