Song name
# A B C D E F G H I J K L M N O P Q R S T U V W X Y Z

Foo Fighters - Times Like These Live Acoustic tab

This is tabbed from the live album 'Skin and Bones' and is primarily designed for one 
guitar, although it works equally well on electric.  A second guitar can be used for the 
but it sounds just as good without.

Intro

e|-2-2-2-2-2-2-2-2-2-2-2-2|
B|-3-3-3-3-3-3-3-3-3-3-3-3|
G|-0h2-2p0h2p0h2p0h2p0h2-2| (x4)
D|-0-0-0-0-0-0-0-0-0-0-0-0|
A|------------------------|
E|------------------------|


Verse

e|-2--0---0---0--0000--3---3---3--3300-0-3-30-0-0-0-000|
B|-3-3---3---3---3331-1---1---1---1111-1-1-11-0-0-3-333|
G|-2----2---2----2202----2---2----2220-0-0-00-0-0-0-000|
D|-0-------------0002-------------2222-2-2-22-2-2-2-222|
A|------------------0-------------0003-3-3-33-2-2-2-222|
E|--------------------------------------------0-0-0-000|

e|-2-2-2-2-2-2-2-2-2-2-2-2|
B|-3-3-3-3-3-3-3-3-3-3-3-3|
G|-0h2-2p0h2p0h2p0h2p0h2-2|
D|-0-0-0-0-0-0-0-0-0-0-0-0|
A|------------------------|
E|------------------------|

e|-2--0---0---0--0000--3---3---3--3300-0-3-30-0-0-0-000|
B|-3-3---3---3---3331-1---1---1---1111-1-1-11-0-0-3-333|
G|-2----2---2----2202----2---2----2220-0-0-00-0-0-0-000|
D|-0-------------0002-------------2222-2-2-22-2-2-2-222|
A|------------------0-------------0003-3-3-33-2-2-2-222|
E|--------------------------------------------0-0-0-000|

e|-2-2-2-2-2-2-2-2-2-2-2-2|
B|-3-3-3-3-3-3-3-3-3-3-3-3|
G|-0h2-2p0h2p0h2p0h2p0h2-2| (x2)
D|-0-0-0-0-0-0-0-0-0-0-0-0|
A|------------------------|
E|------------------------|


Chorus

e|-0-03-30-0-00-000-22200000|
B|-1-11-11-0-03-333-33333333|
G|-0-00-00-0-00-000-22222200|  (x4)
D|-2-22-22-2-22-222-00000000|
A|-3-33-33-2-22-222---------|
E|---------0-00-000---------|


Bridge

e|-2-2-2-2-2-2-2-2-2-2-2-2|
B|-3-3-3-3-3-3-3-3-3-3-3-3|
G|-0h2-2p0h2p0h2p0h2p0h2-2| (x2)
D|-0-0-0-0-0-0-0-0-0-0-0-0|
A|------------------------|
E|------------------------|


Verse

e|-2--0---0---0--0000--3---3---3--3300-0-3-30-0-0-0-000|
B|-3-3---3---3---3331-1---1---1---1111-1-1-11-0-0-3-333|
G|-2----2---2----2202----2---2----2220-0-0-00-0-0-0-000|
D|-0-------------0002-------------2222-2-2-22-2-2-2-222|
A|------------------0-------------0003-3-3-33-2-2-2-222|
E|--------------------------------------------0-0-0-000|

e|-2-2-2-2-2-2-2-2-2-2-2-2|
B|-3-3-3-3-3-3-3-3-3-3-3-3|
G|-0h2-2p0h2p0h2p0h2p0h2-2|
D|-0-0-0-0-0-0-0-0-0-0-0-0|
A|------------------------|
E|------------------------|

e|-2--0---0---0--0000--3---3---3--3300-0-3-30-0-0-0-000|
B|-3-3---3---3---3331-1---1---1---1111-1-1-11-0-0-3-333|
G|-2----2---2----2202----2---2----2220-0-0-00-0-0-0-000|
D|-0-------------0002-------------2222-2-2-22-2-2-2-222|
A|------------------0-------------0003-3-3-33-2-2-2-222|
E|--------------------------------------------0-0-0-000|

e|-2-2-2-2-2-2-2-2-2-2-2-2|
B|-3-3-3-3-3-3-3-3-3-3-3-3|
G|-0h2-2p0h2p0h2p0h2p0h2-2| (x2)
D|-0-0-0-0-0-0-0-0-0-0-0-0|
A|------------------------|
E|------------------------|


Chorus

e|-0-03-30-0-00-000-22200000|
B|-1-11-11-0-03-333-33333333|
G|-0-00-00-0-00-000-22222200|  (x4)
D|-2-22-22-2-22-222-00000000|
A|-3-33-33-2-22-222---------|
E|---------0-00-000---------|


Interlude (palm mute at first, gradually getting louder and faster)

e|22222222222222|00000000000000|00000000000000
B|33333333333333|11111111111111|00000000000000
G|22222222222222|00000000000000|00000000000000  (x10)
D|00000000000000|22222222222222|22222222222222
A|--------------|33333333333333|22222222222222-|
E|--------------|--------------|00000000000000-|


Chorus/Outro (slowly and quietly)

e|-2-2-2-2-2-2-2-2-2-2-2-2|
B|-3-3-3-3-3-3-3-3-3-3-3-3|
G|-0h2-2p0h2p0h2p0h2p0h2-2| (x2)
D|-0-0-0-0-0-0-0-0-0-0-0-0|
A|------------------------|
E|------------------------|

e|-0-03-30-0-00-000-22200000|
B|-1-11-11-0-03-333-33333333|
G|-0-00-00-0-00-000-22222200|  (x4)
D|-2-22-22-2-22-222-00000000|
A|-3-33-33-2-22-222---------|
E|---------0-00-000---------|

e|-3----|
B|-1----|
G|-0----|
D|-2----|
A|-3----|
E|------|
Tap to rate this tab
# A B C D E F G H I J K L M N O P Q R S T U V W X Y Z